Oops, an error
Loading. Please wait.
We have an official I Wanna Be Your Dog tab made by UG professional guitarists. Check out the tab »
×

I Wanna Be Your Dog bass

103 views 3 this week
1 commentread comment
1 2 3 4 5
1 last vote to show rating
add to favorites
×
Save as Personal and add changes to this tab that will be seen only by you. Learn more ›
×
You can save this tab as Personal to edit and correct it or add notes. All changes will be seen only by you. Learn more »
launch autoscroll
font size
0
reset
guitar tuner
edit
Autoscroll
slow
fast
+/-
esc
set tempo
stop
Author
Difficulty
About this tab version
More accurate, complete, all the parts. Was this info helpful? Yes No
----------------------------------------------------------------------------------------------------
                           The Stooges - I Wanna Be Your Dog
----------------------------------------------------------------------------------------------------

Album : The Stooges (1969)
Tempo : 120
E-mail: gwendal.mollo@orange.fr
Tabbed by: newg    (http://profile.ultimate-guitar.com/newg/)

See my guitar pro/powertab for more.

My cover :
https://www.youtube.com/watch?v=b2YT5eNPWSM&list=PLJULby03EpIk7ACqbkjwxW5H0Jox_Vd2E&index=12

[Intro]
G|----------------|
D|----------------|
A|----------------|
E|----------------|

G|-----------------|-----------------|----------------|----------------|
D|-----------------|-----------------|----------------|----------------|
A|-6h7-------------|----------6h7----|----------------|----------------|
E|----------0------|---0-------------|--0L------------|--0-------------|

G|----------------|----------------|
D|----------------|----------------|
A|----------------|----------------|
E|----------------|----------------|

G|----------------|----------------------------|
D|----------------|----------------------------|
A|----------------|--7--7--7--7--7--7--7--7s---|
E|----------------|----------------------------|

G|----------------------------|----------------------------|
D|----------------------------|----------------------------|
A|--10-10-10-10s9--9--9--9s---|--7--7--7--7--7--7--7--7s---|
E|----------------------------|----------------------------| x3

[Verse 1]
G|----------------------------|----------------------------|
D|----------------------------|----------------------------|
A|--10-10-10-10s9--9--9--9s---|--7--7--7--7--7--7--7--7s---|
E|----------------------------|----------------------------| x8

[Chorus 1]
G|----------------------------|----------------------------|
D|----------------------------|----------------------------|
A|--10-10-10-10s9--9--9-------|--9--9--9--7-----7--7--7s---|
E|----------------------------|----------------------------| x3

G|----------------------------|----------------------------|
D|----------------------------|----------------------------|
A|--10-10-10-7------7--7--7---|----------------------------|
E|----------------------------|-10--10--10--7-----7--7--7--| 

G|----------------------------|----------------------------|
D|----------------------------|----------------------------|
A|----------------------------|----------------------------|
E|-7h8--8--8--8--7h8--8--8--8-|-7h8--8--8--8--7h8--8--8--8-|

G|----------------------------|----------------------------|
D|----------------------------|----------------------------|
A|--7--7--7--7--7--7--7--7s---|--7--7--7--7--7--7--7--7s---|
E|----------------------------|----------------------------| 

[Post-Chorus]
G|----------------------------|----------------------------|
D|----------------------------|----------------------------|
A|--10-10-10-10s9--9--9--9s---|--7--7--7--7--7--7--7--7s---|
E|----------------------------|----------------------------| x3

[Verse 2]
G|----------------------------|----------------------------|
D|----------------------------|----------------------------|
A|--10-10-10-10s9--9--9--9s---|--7--7--7--7--7--7--7--7s---|
E|----------------------------|----------------------------| x8
  
[Chorus 2]
G|----------------------------|----------------------------|
D|----------------------------|----------------------------|
A|--10-10-10-10s9--9--9-------|--9--9--9--7-----7--7--7s---|
E|----------------------------|----------------------------| x3

G|----------------------------|----------------------------|
D|----------------------------|----------------------------|
A|--10-10-10-7------7--7--7---|----------------------------|
E|----------------------------|-10--10--10--7-----7--7--7--|  

G|----------------------------|----------------------------|
D|----------------------------|----------------------------| 
A|----------------------------|----------------------------|
E|-7h8--8--8--8--7h8--8--8--8-|-7h8--8--8--8--7h8--8--8--8-|

G|----------------------------|----------------------------|
D|----------------------------|----------------------------|
A|--7--7--7--7--7--7--7--7s---|--7--7--7--7--7--7--7--7s---|
E|----------------------------|----------------------------|

[Solo]
G|----------------------------|----------------------------|
D|----------------------------|----------------------------|
A|--10-10-10-10s9--9--9--9s---|--7--7--7--7--7--7--7--7s---|
E|----------------------------|----------------------------| x4

[Outro]
G|----------------------------|----------------------------|
D|----------------------------|----------------------------|
A|--10-10-10-10s9--9--9--9s---|--7--7--7--7--7--7--7--7s---|
E|----------------------------|----------------------------| x3 Fade out ...


Legend
h - hammer on/pull off
s - slide
L - Let ring

            
            
Suggest correction
Creating personal tab
Creating personal tab
You can edit any tab online and save it as your Personal.

You can edit, replace or remove any tab part or add personal notes – all changes will be seen only by you.

Personal tabs can be accessed anytime from any device, even offline.
Learn more »
Give kudos to tab author, rate the tab!
1 2 3 4 5
comments
print report bad tab
1 comment total.
+1 reply
branx 10 May 20, 2017 06:15 PM

Looking for some Stooges tabs. Bass lines can be simple, it is the extra detail regarding the exact arrangement that can make a tab worthwhile. Found the tabs by this author and they are excellent. Thank you for your time and effort creating these!

guest
You may want to rate the tab now too:
select rating
Wanna post a correction for this tab? Suggest correction