Oops, an error
Loading. Please wait.

Johanna chords

136 views 1 this week
no commentswrite comment
1 2 3 4 5
3 more votes to show rating
add to favorites
×
Save as Personal and add changes to this tab that will be seen only by you. Learn more ›
×
You can save this tab as Personal to edit and correct it or add notes. All changes will be seen only by you. Learn more »
launch autoscroll
font size
0
reset
transpose
0
reset
simplify chords
display chords
guitar tuner
edit
Autoscroll
slow
fast
+/-
esc
set tempo
stop
Author
Difficulty
intermediate
Strumming
There is no strumming pattern for this song yet. and get +5 IQ
[Intro]
     Em7    Em7           G      G D       D A
     Em7    Em7           G      G D       D A
  Oh yeeeah...
     Em7    Em7           G      G D       D A
  Oh Yeeah!
     Em7                  D      G G   B   G G   Em7
  Oh Yeeeah!

     Em7    Em7           G      G D       D A
     Em7    Em7           G      G D       D A

[Verse 1]
     Em7    Em7           G      G D       D A
I've been a dreamer,      I've   been  a   dreamer
     Em7    Em7           G      G D       D A
I've been a dreamer  for  a      long lost love
     Em7    Em7           G      G D       D A
  Jo-hanna,           uh, Johanna
     Em7                  D      G G   B   G G   Em7
   I hate ya baby,   but  you're the   one I     luuuuhve.

     Em7    Em7           G      G D       D A
     Em7    Em7           G      G D       D A

[Verse 2]
     Em7    Em7           G      G D       D A
I've been a mean one,     I've   been      unclean
     Em7    Em7           G      G D       D A
I've been a bitch, and I  know   it        too,
     Em7    Em7           G      G D       D A
  Jo-hanna,           uh, Johanna,
     Em7                  D      G G   B   G G   Em7
   I hate to say it but   I'm    comin'back to   you...

[gtr solo]
     Em7    Em7           G      G D       D A (x6)

[Verse 3]
     Em7    Em7           G      G D       D A
   Screamin'murder,   I'm scream-ing       murder,
     Em7    Em7           G      G D       D A
   A bloody murder        all    in   my   brain
     Em7    Em7           G      G D       D A
  Jo-hanna,           uh, Johanna,
     Em7                  D      G G   B   G G   Em7
   I hate ya baby, 'cos   you're the   one I     love.

[piano fill]
    E5   E5   E5   E5     D  G G  B  G G     D  G G  B  G G

    E5   E5   E5   E5     D  G G  B  G G     D  G G  B  G G    
    Love!
    E5   E5   E5   E5     D  G G  B  G G     D  G G  B  G G
    Love!

[Fade to End]
    
[intro]
     Em7  Em7         G       G D   D A    x3   Em7 Em7       D    G     B    G       Em7      x1             
e|--------3~---3-3~ -----3~ --3-------------|-------3~ -------2~ --3-3------ -3-3---------3~ ---|
B|--------3~ x-3-3~ -----3~ x-3-3-x-3-------|-------3~ -------3~ x-3-3-x-4~ x-3-3-x-------3~ ---|
G|--------0~ x-0-0~ -----0~ x-0-2-x-2-2-x---|-------0~ -------2~ x-0-0-x-4~ x-0-0-x-------0~ ---|
D|---2-2---- x--------------x---0-x-0-2-x---|-----------------0~ x-0-0-x-4~ x-0-0-x---2-2-------|
A|---2-2------------02----------------0-x---|---2-2-------02-------x-x---2~ --x-x-----2-2-------|
E|---0-0----------03--33--------------------|---0-0-----03---------3-3--------3-3-----0-2-------|

[Verses]
     Em7   G    G D D A        Em7
e|-----------------------------3~ --3-3~ ---------------------------------------|
B|-----------------------------3~ x-3-3~ ---------------------------------------|
G|-----------------------------0~ x-0-0~ ---------------------------------------|
D|-----------------------------2~ x-2-2~ ---------------------------------------|
A|-----02-/75-5-------0-20-----2~ --2-2~ ---------------------------------------|
E|---03------7--757-53----3-00-0~ --0-0~ ---------------------------------------|

[Gtr solo]
e|-----------------------|-----3p0--3p0----3p0--3p0----|-3p0--3p0----3p0--3p0---|-0-3~ ~ ~ ----------|
B|---3^ -----------------|-3^ ----0----3p0----3----3p0-|----0----3p0----0----3p0|---5~ ~ ~ 5~ ~ ~ ---|
G|-------2-4p2p0---------|-----------------------------|------------------------|--------------------|
D|--------------2-0h2----|-----------------------------|------------------------|--------------------|
A|-------------------2~ -|-----------------------------|------------------------|--------------------|
E|-------------------0~ -|-----------------------------|------------------------|--------------------|

e|-----12-------12-------------|-12-----------15^~ (17)-(17)v-15p12-|-15p12-------12---------|
B|---12--15--15p12h15p12-15^~ -|---15p12-15^~ ----------------------|------15p12--15^ ~ ~ ---|
G|-----------14----14----------|------------------------------------|------------------------|
D|-----------------------------|------------------------------------|------------------------|
A|-----------------------------|------------------------------------|------------------------|
E|-----------------------------|------------------------------------|------------------------|

e|-12------12------------------|-------------------|---------------------------|---------------------|
B|---15-12-15^ 15-15^ 12-15^~ -|-15p12--15p12------|-15-12--15-12-15^ v -------|-12-----12-----12----|
G|-----------------------------|-14p12--14p12--12--|--------------------14^ v -|-12-14--14^ v -12----|
D|-----------------------------|---------------14--|---------------------------|-----------------14--|
A|-----------------------------|-------------------|---------------------------|---------------------|
E|-----------------------------|-------------------|---------------------------|---------------------|

                                                            [piano fill]
e|--------------------------------------------------|    |---------------30-0------------------------|
B|---3^ v -0----------------------------------------|    |-----------------3----30-0---0-------------|
G|----------2--2^-2^ v 0----0-----------------------|    |------------------------2-----202---0------|
D|----------------------2--2------------------------|    |-------------------------------------202---|
A|--------------------------------------------------|    |-------------------------------------------|
E|--------------------------------------------------|    |-------------------------------------------|

Iggy and the Stooges - Johanna (Studio Version)
https://m.youtube.com/watch?v=1bs5L1uQmI8

************************************
| ^  Full Bend
| v  Release Bend
| h  Hammer On
| p  Pull Off
| ~  Vibrato
| x  Dead note
| /  Slide up

************************************

            
            
Suggest correction
Creating personal tab
Creating personal tab
You can edit any tab online and save it as your Personal.

You can edit, replace or remove any tab part or add personal notes – all changes will be seen only by you.

Personal tabs can be accessed anytime from any device, even offline.
Learn more »
Give kudos to tab author, rate the tab!
1 2 3 4 5
comments
print report bad tab
guest
You may want to rate the tab now too:
select rating
Wanna post a correction for this tab? Suggest correction