Oops, an error
Loading. Please wait.

No Fun Bass Tab

version 2
version 2

Whole song

  • All the parts, correct note and rythm.

Interactive

28 views 15 this week
no commentswrite comment
1 2 3 4 5
3 more votes to show rating
add to favorites
launch autoscroll
font size
0
reset
guitar tuner
Autoscroll
slow
fast
+/-
esc
set tempo
stop
Help us to improve Ultimate-Guitar.com Take our survey!
×
Author
Difficulty
newg [tm] 45,852
novice
About this tab version
All the parts, correct note and rythm. Was this info helpful? Yes No
----------------------------------------------------------------------------------------------------
                           The Stooges - No Fun
----------------------------------------------------------------------------------------------------

Album : The Stooges (1969)
Tempo : 115
E-mail: gwendal.mollo@orange.fr
Tabbed by: newg    (http://profile.ultimate-guitar.com/newg/)

For more, check my Guitar pro/powertab on the site.


[Intro]
G|---------------------------|--------------------------|
D|---------------------------|--------------------------|
A|---------------------------|-5--5--3--5-----3--5--3---|
E|--5--5--3--5-----3--5--3---|--------------------------| x3


G|---------------------------|
D|---------------------------|
A|---------------------------|
E|--5--5--3--5-----3--5--3---| x2


[Verse]

G|---------------------------|--------------------------|
D|---------------------------|--------------------------|
A|---------------------------|--------------------------|
E|--5--5--3--5-----3--5--3---|-0--0--0--0-----0--0--0---|

G|---------------------------|
D|---------------------------|
A|---------------------------|
E|--5--5--3--5-----3--5--3---| x3

G|---------------------------|
D|---------------------------|
A|---------------------------|
E|--0--0--0--0-----0--0--0---|

G|---------------------------|
D|---------------------------|
A|---------------------------|
E|--5--5--3--5-----3--5--3---| x2

G|---------------------------|
D|---------------------------|
A||-5--5--3--5-----3--5--3---|
E|---------------------------| 

G|---------------------------|--------------------------|
D|---------------------------|--------------------------|
A|---------------------------|--------------------------|
E|--5--5--3--5-----3--5--3---|-0--0--0--0-----0--0--0---|

G|---------------------------|
D|---------------------------|
A|---------------------------|
E|--5--5--3--5-----3--5--3---| 


[Chorus]

G|---------------------------|---------------------------|
D|---------------------------|---------------------------|
A||-5--5--3--5-----3--5--3---|---------------------------|
E|---------------------------|--5--5--3--5-----3--5--3---|

G|---------------------------|---------------------------|
D|---------------------------|---------------------------|
A|---------------------------|---------------------------|
E|--0--0--0--0-----0--0--0---|--0------------------------|

G|---------------------------|
D|---------------------------|
A|---------------------------|
E|--5--5--3--5-----3--5--3---| x4

[Bridge]

G|---------------------------|
D|---------------------------|
A|--7--7--5--7-----7--7--5---| 
E|---------------------------| x4
Suggest correction
Give kudos to tab author, rate the tab!
1 2 3 4 5
comments
print report bad tab
guest
You may want to rate the tab now too:
select rating
Wanna post a correction for this tab? Suggest correction