Oops, an error
Loading. Please wait.

No Fun Bass

version 2
version 2

Whole song

  • V2. 2017 update. All the parts, tempo etc...

Interactive

337 views 9 this week
1 commentread comment
1 2 3 4 5
2 more votes to show rating
add to favorites
launch autoscroll
font size
0
reset
guitar tuner
Autoscroll
slow
fast
+/-
esc
set tempo
stop
Author
Difficulty
newg [tm] 48,695
novice
About this tab version
V2. 2017 update. All the parts, tempo etc... Was this info helpful? Yes No
----------------------------------------------------------------------------------------------------
                              The Stooges - No Fun
----------------------------------------------------------------------------------------------------

Album : The Stooges (1969)
Tempo : 115
E-mail: gwendal.mollo@orange.fr
Tabbed by: newg    (http://profile.ultimate-guitar.com/newg/)

For more, check my Guitar pro/powertab on the site.


[Intro]
G|---------------------------|--------------------------|
D|---------------------------|--------------------------|
A|---------------------------|-5--5--3--5-----3--5--3---|
E|--5--5--3--5-----3--5--3---|--------------------------| x3


G|---------------------------|
D|---------------------------|
A|---------------------------|
E|--5--5--3--5-----3--5--3---| x2


[Verse]

G|---------------------------|--------------------------|
D|---------------------------|--------------------------|
A|---------------------------|--------------------------|
E|--5--5--3--5-----3--5--3---|-0--0--0--0-----0--0--0---|

G|---------------------------|
D|---------------------------|
A|---------------------------|
E|--5--5--3--5-----3--5--3---| x3

G|---------------------------|
D|---------------------------|
A|---------------------------|
E|--0--0--0--0-----0--0--0---|

G|---------------------------|
D|---------------------------|
A|---------------------------|
E|--5--5--3--5-----3--5--3---| x2

G|---------------------------|
D|---------------------------|
A||-5--5--3--5-----3--5--3---|
E|---------------------------| 

G|---------------------------|--------------------------|
D|---------------------------|--------------------------|
A|---------------------------|--------------------------|
E|--5--5--3--5-----3--5--3---|-0--0--0--0-----0--0--0---|

G|---------------------------|
D|---------------------------|
A|---------------------------|
E|--5--5--3--5-----3--5--3---| 


[Chorus]

G|---------------------------|---------------------------|
D|---------------------------|---------------------------|
A||-5--5--3--5-----3--5--3---|---------------------------|
E|---------------------------|--5--5--3--5-----3--5--3---|

G|---------------------------|---------------------------|
D|---------------------------|---------------------------|
A|---------------------------|---------------------------|
E|--0--0--0--0-----0--0--0---|--0------------------------|

G|---------------------------|
D|---------------------------|
A|---------------------------|
E|--5--5--3--5-----3--5--3---| x4

[Bridge]

G|---------------------------|       |----------------------------|
D|---------------------------|       |----------------------------|
A|--7--7--5--7-----7--7--5---|       |--------5--------------5----|
E|---------------------------| x 3   |--0--0-----0-----0--0-------|



Variations : (play in alternance this with the principal riff)

G|----------------------------|----------------------------|
D|----------------------------|----------------------------|
A|----------------------------|--5--5--3--5--5--3--5--3----|
E|--5--5--3--5--5--3--5--3----|----------------------------|

G|----------------------------|----------------------------|
D|----------------------------|----------------------------|
A|----------------------------|--5--5--3--5--5--3--5--3----|
E|--5--5--3--5-----3--5--3----|----------------------------|

G|----------------------------|----------------------------|
D|----------------------------|----------------------------|
A|----------------------------|--5--5--3--5--5--5--5--3----|
E|--5--5--3--5--5--5--5--3----|----------------------------|

G|----------------------------|----------------------------|
D|----------------------------|--------------2-------------|
A|----------------------------|--5--5--3--5-----5--3-------|
E|--5--5--3--5L-5--3--5--3----|-----------------------5----|

G|----------------------------|----------------------------|
D|----------------------------|----------------------------|
A|----------------------------|--5--5--3--5--5--3--5--3----|
E|--5--5--3--5L-5--3--5--3----|----------------------------|

G|----------------------------|----------------------------|
D|----------------------------|----------------------------|
A|----------------------------|--5--5--3--5--7b----3-------|
E|--5--5--3--5L-5--3--5--3----|-----------------------5----|

G|----------------------------|----------------------------|
D|----------------------------|----------------------------|
A|----------------------------|--5--5--3--5--5--3--5--3----|
E|--5--5--3--5L-5--3--5--3----|----------------------------|

G|----------------------------|----------------------------|
D|----------------------------|----------------------------|
A|----------------------------|--5--5--3--5--7--5--3-------|
E|--5--5--3--5L-5--3--5--3----|-----------------------5----|

G|----------------------------|----------------------------|
D|----------------------------|--------------3--2----------|
A|----------------------------|--5--5--3--5--------5--3----|
E|--5--5--3--5-----3--5--3----|----------------------------|

etc...
Suggest correction
Give kudos to tab author, rate the tab!
1 2 3 4 5
comments
print report bad tab
1 comment total.
+1 reply
branx 10 May 20, 2017 06:04 PM

So many lazy tabs and once in a while you find one where someone put some time and effort into it like this. Thank you.

guest
You may want to rate the tab now too:
select rating
Wanna post a correction for this tab? Suggest correction