Oops, an error
Loading. Please wait.

No Fun Tab

version 4
version 4

Whole song

Interactive

13 views 3 this week
no commentswrite comment
1 2 3 4 5
3 more votes to show rating
add to favorites
launch autoscroll
font size
0
reset
how to read this tab
guitar tuner
Autoscroll
slow
fast
+/-
esc
set tempo
stop
Help us to improve Ultimate-Guitar.com Take our survey!
×
Author
Difficulty
newg [tm] 45,817
novice
About this tab version
Better chord, more accurate, with all the parts, but no solo... Was this info helpful? Yes No
----------------------------------------------------------------------------------------------------
                           The Stooges - No Fun
----------------------------------------------------------------------------------------------------

Album : The Stooges (1969)
Tempo : 115
E-mail: gwendal.mollo@orange.fr
Tabbed by: newg    (http://profile.ultimate-guitar.com/newg/)

For more, check my Guitar pro/powertab on the site.



[Intro]   
    A    A/G                    D5   D5/C                 
e|-----------0---------------|---------------------------|
B|--2--2-----2----2--2--2----|--3--3-----3----3--3--3----|
G|--2--2-----2----2--2--2----|--2--2--2--2----2--2--2----|
D|--2--2--2--2----2--2--2----|--0--0--x--0----0--0--0----|
A|--0--0--x--0----0--0--0----|--------3------------------|
E|--------3------------------|---------------------------| x3

    A
e|----------------------------|
B|--2--2-----2-----2--2--2----|
G|--2--2-----2-----2--2--2----|
D|--2--2--2--2-----2--2--2----|
A|--0--0--x--0-----0--0--0----|
E|--------3-------------------| x2


[Verse]

    A    A/G                    E     E7                     
e|-----------0---------------|-----------0-----0--0-------|
B|--2--2-----2----2--2--2----|-----------0-----0--0--0----|
G|--2--2-----2----2--2--2----|--1--1--1--1-----1--1--0----|
D|--2--2--2--2----2--2--2----|--2--2--0--2-----2--2--0----|
A|--0--0--x--0----0--0--0----|--2--2--2--2-----2--2--0----|
E|--------3------------------|--0--0--0--0-----0--0--0----| x3


    A    A/G                                
e|-----------0---------------|
B|--2--2-----2----2--2--2----|
G|--2--2-----2----2--2--2----|
D|--2--2--2--2----2--2--2----|
A|--0--0--x--0----0--0--0----|
E|--------3------------------| x3

   E     E7                     
e|-----------0-----0--0-------|
B|-----------0-----0--0--0----|
G|--1--1--1--1-----1--1--0----|
D|--2--2--0--2-----2--2--0----|
A|--2--2--2--2-----2--2--0----|
E|--0--0--0--0-----0--0--0----| x3

    A    A/G                                
e|-----------0---------------|
B|--2--2-----2----2--2--2----|
G|--2--2-----2----2--2--2----|
D|--2--2--2--2----2--2--2----|
A|--0--0--x--0----0--0--0----|
E|--------3------------------| x2

    D5   D5/C                   A    A/G                                  
e|---------------------------|-----------0---------------|
B|--3--3-----3----3--3--3----|--2--2-----2----2--2--2----|
G|--2--2--2--2----2--2--2----|--2--2-----2----2--2--2----|
D|--0--0--x--0----0--0--0----|--2--2--2--2----2--2--2----|
A|--------3------------------|--0--0--x--0----0--0--0----|
E|---------------------------|--------3------------------| 

   E     E7                     
e|-----------0-----0--0-------|
B|-----------0-----0--0--0----|
G|--1--1--1--1-----1--1--0----|
D|--2--2--0--2-----2--2--0----|
A|--2--2--2--2-----2--2--0----|
E|--0--0--0--0-----0--0--0----| 

    A    A/G                                
e|-----------0---------------|
B|--2--2-----2----2--2--2----|
G|--2--2-----2----2--2--2----|
D|--2--2--2--2----2--2--2----|
A|--0--0--x--0----0--0--0----|
E|--------3------------------| 


[Chorus]

    D5   D5/C                   A    A/G                                  
e|---------------------------|-----------0---------------|
B|--3--3-----3----3--3--3----|--2--2-----2----2--2--2----|
G|--2--2--2--2----2--2--2----|--2--2-----2----2--2--2----|
D|--0--0--x--0----0--0--0----|--2--2--2--2----2--2--2----|
A|--------3------------------|--0--0--x--0----0--0--0----|
E|---------------------------|--------3------------------| 

   E     E7                     E             
e|-----------0-----0--0------|---------------------------|
B|-----------0-----0--0--0---|--0------------------------|
G|--1--1--1--1-----1--1--0---|--1------------------------|
D|--2--2--0--2-----2--2--0---|--2------------------------|
A|--2--2--2--2-----2--2--0---|--2------------------------|
E|--0--0--0--0-----0--0--0---|--0------------------------|

    A    A/G                                
e|-----------0---------------|
B|--2--2-----2----2--2--2----|
G|--2--2-----2----2--2--2----|
D|--2--2--2--2----2--2--2----|
A|--0--0--x--0----0--0--0----|
E|--------3------------------|  x4


[Bridge]


   E     E7                     
e|-----------0-----0--0-------|
B|-----------0-----0--0--0----|
G|--1--1--1--1-----1--1--0----|
D|--2--2--0--2-----2--2--0----|
A|--2--2--2--2-----2--2--0----|
E|--0--0--0--0-----0--0--0----| x4

Suggest correction
Give kudos to tab author, rate the tab!
1 2 3 4 5
comments
print report bad tab
guest
You may want to rate the tab now too:
select rating
Wanna post a correction for this tab? Suggest correction