Oops, an error
Loading. Please wait.

Penetration tab

version 5
version 5

Whole song

91 views 1 this week
no commentswrite comment
1 2 3 4 5
3 more votes to show rating
add to favorites
×
Save as Personal and add changes to this tab that will be seen only by you. Learn more ›
×
You can save this tab as Personal to edit and correct it or add notes. All changes will be seen only by you. Learn more »
launch autoscroll
font size
0
reset
how to read this tab
guitar tuner
edit
Autoscroll
slow
fast
+/-
esc
set tempo
stop
Raw Power LP Studio Version
standard tuning
capo 3rd fret
all rhythm/lead relative to capo

[Intro] [riff repeats entire song]                 [alternate live Paris 2012 take]
e|-----------------------------------------------| |-------------------------------------------------|
B|-----------------------------------------------| |-------------------------------------------------|
G|---------0---------------------------------0---| |-----0h2-0---------------------------------------|
D|------0h2----0h2-0---------0h2-0------0---0----| |-------------0h2-0-----------0h2-0------0----5---|
A|---------------------2-------------2-2---4-----| |---------------------0h2-------------2-2---45----|
E|---0-0------0-------0---0-0-------0-3--/5------| |--0-0-------0-------0-----0-0-------0-3--/5------|

Penetrate me, penetrate me
It's so fine, so fine, so fine
I get excited, I get excited
Ohhhh, it's so fine, pull a line

Every night time, every nightime
I'm going down, goin' down, pulsate
Purify me, purify me
Take a way, take away, paralyse

Ooooh, ow, nya nya nya ya ya
Penetration

Come and take me, come and take me
I'm alive, I'm alive, I'm alive
I'll stick it hard, babe, stick it hard
Purify, exorcise, penetrate

Penetration


[lead overdub track]
 0:28                                              0:43                      1:54
e|---0-------0--0-0--0--0------------------------| |-----------------------| |------------------|
B|---0h3p0---3^ 3-0--3^ 3p0--0---0-0-------0~ ---| |---0-5p3p0-0-----------| |------------------|
G|---------------------------2^ v2-0-0---0-0~ ---| |----------2--2p0-2h4---| |---2^ 2^v 2~ ~ ---|
D|-----------------------------------2---2-------| |-----------------------| |------------------|
A|-----------------------------------------------| |-----------------------| |------------------|
E|-----------------------------------------------| |-----------------------| |------------------|

 2:09                   2:13           
e|--------------------| |-0--0-0-0-0h2--3~ ~ ----------------0--3p0---3p0---3p0---3p0---3p0---3p0---3p0-----|
B|--------------------| |-0--0-0-0-0---------5p3h5~ ~ 5p3p0--------3p0---3p0---3p0---3p0---3p0---3p0---3p0--|
G|--------------------| |-0--0-0-0-0------------------------------------------------------------------------|
D|------0-2~ ~ ~ -----| |-2--2-2-2--------------------------------------------------------------------------|
A|---1/2--------------| |-----------------------------------------------------------------------------------|
E|--------------------| |-----------------------------------------------------------------------------------|

                        2:34                                                           2:41
e|--------------------| |---3p0---3p0---3p0---3p0---3p0---3p0---3p0-----------------------------------------|
B|---3~ ~ ~ 5~ ~ ~ ---| |-0----3p0---3p0---3p0---3p0---3p0---3p0---3p0-3^ 5~ ~5-3-5~ ~ ---------------------|
G|--------------------| |-------------------------------------------------------------2^ 2-2^ ~ 0h2-0-------|
D|--------------------| |----------------------------------------------------------------------------2-0-2~ |
A|--------------------| |-----------------------------------------------------------------------------------|
E|--------------------| |-----------------------------------------------------------------------------------|

 2:48                                       2:58
e|-----------------------0--------------------------5^ 3~ ~ ~ ----------------------------------------------|
B|---3^ v3p0-----------0-3-0-0------------------3-5---------------------------------------------------------|
G|-----------2^ v2p0---------2-0-------0----------------------------0---------------------------------------|
D|------------------------------------0-2p0h2--------------------0h2-2-0h2---7^ 7-5~ ~ ~ ~ -----------------|
A|---------------------------------0h2------------------------0h2-------------------------------------------|
E|----------------------------------------------------------------------------------------------------------|

 3:05       3:08                                                3:17                               Fade
e|---0~ ~ ~ ------7~ ~ ----7~ ~ 10---7--7---7---7~ ~ 0~ ~ ~ --------3p0------------------0~ ~ ~ ------------|
B|---3^ ~ ~ ~ ---10^ ~ 10-10^ ~ ~ ~ 10-10^ 10^ 10^ v 8-0~ ~ ~ --8-0----3p0-3p0-3p0-3p0-3^ ~ ~ ~ ------------|
G|-----------------------------------------------------9~ ~ ~ ----------------------------------------------|
D|----------------------------------------------------------------------------------------------------------|
A|----------------------------------------------------------------------------------------------------------|
E|----------------------------------------------------------------------------------------------------------|

************************************

| h   Hammer-on
| /   Slide up
| p   Pull-off
| ^   Full Bend
| v   Release Bend
| ~   Vibrato
| ~ ~ Sustained Vibrato

************************************
Suggest correction
Creating personal tab
Creating personal tab
You can edit any tab online and save it as your Personal.

You can edit, replace or remove any tab part or add personal notes – all changes will be seen only by you.

Personal tabs can be accessed anytime from any device, even offline.
Learn more »
Give kudos to tab author, rate the tab!
1 2 3 4 5
comments
print report bad tab
guest
You may want to rate the tab now too:
select rating
Wanna post a correction for this tab? Suggest correction