Oops, an error
Loading. Please wait.

Search And Destroy Bass

version 1
version 1

Whole song

Interactive

19,179 views 75 this week
no commentswrite comment
1 2 3 4 5
x 3
add to favorites
launch autoscroll
font size
0
reset
guitar tuner
×
Best way to learn
"Search And Destroy"
Autoscroll
slow
fast
+/-
esc
set tempo
stop
Tuning: Standard

[Intro] (x2)
G|----------------------------------------------------------|
D|---------4444---------------------------------------------|
A|4-4---22-2-----44-----------------------------------------|
E|--444-----------------------------------------------------|

[Verse] (x3)
G|--------------------------------------------|
D| -------2-----------------------------------|
A|444444----000000-2--------------------------|
E|--------------------------------------------|

[Pre-Chorus] (x2)
G|----------------------------------------------------------|
D|----------------------------------------------------------|
A|4--42—-20000---22-----------------------------------------|
E|44—-22-----0----------------------------------------------|

[Chorus]
G|----------------------------------------------------------|
D|----------------------------------------------------------|
A|-----------------------------2\4--------------------------|
E|1\2-22----22----22----22\4--------------------------------|

G|----------------------------------------------------------|
D|----------------------------------------------------------|
A|--------------5H7-----------------------------------------|
E|5555-55-55-55H7-------------------------------------------|

G|----------------------------------------------------------|
D|----------------------------------------------------------|
A|--------------2H4-----------------------------------------|
E|0000-00-00-02H4-------------------------------------------|

G|----------------------------------------------------------|
D|----------------------------------------------------------|
A|----------------------------------------------------------|
E|4444-44-44-4444-------------------------------------------|

[Verse] (x2)
G|--------------------------------------------|
D| -------2-----------------------------------|
A|444444----000000-2--------------------------|
E|--------------------------------------------|

[Pre-Chorus] (x2)
G|----------------------------------------------------------|
D|----------------------------------------------------------|
A|4--42—-20000---22-----------------------------------------|
E|44—-22-----0----------------------------------------------|

[Chorus]
G|----------------------------------------------------------|
D|----------------------------------------------------------|
A|-----------------------------2\4--------------------------|
E|1\2-22----22----22----22\4--------------------------------|

G|----------------------------------------------------------|
D|----------------------------------------------------------|
A|--------------5H7-----------------------------------------|
E|5555-55-55-55H7-------------------------------------------|

G|----------------------------------------------------------|
D|----------------------------------------------------------|
A|--------------2H4-----------------------------------------|
E|0000-00-00-02H4-------------------------------------------|

G|----------------------------------------------------------|
D|----------------------------------------------------------|
A|----------------------------------------------------------|
E|4444-44-44-4444-------------------------------------------|

[Bridge] (x2)
G|----------------------------------------------------------|
D|----------------------------------------------------------|
A|4--4---4-2--2---2-0--0—0-2--2---222-----------------------|
E|-----4-2------2-0----0-2----------------------------------|

[Instrumental] (x2)
G|----------------------------------------------------------|
D|---------4444---------------------------------------------|
A|4-4---22-2-----44-----------------------------------------|
E|--444-----------------------------------------------------|

[Verse] (x3)
G|--------------------------------------------|
D| -------2-----------------------------------|
A|444444----000000-2--------------------------|
E|--------------------------------------------|

[Pre-Chorus] (x2)
G|----------------------------------------------------------|
D|----------------------------------------------------------|
A|4--42—-20000---22-----------------------------------------|
E|44—-22-----0----------------------------------------------|

[Chorus]
G|----------------------------------------------------------|
D|----------------------------------------------------------|
A|-----------------------------2\4--------------------------|
E|1\2-22----22----22----22\4--------------------------------|

G|----------------------------------------------------------|
D|----------------------------------------------------------|
A|--------------5H7-----------------------------------------|
E|5555-55-55-55H7-------------------------------------------|

G|----------------------------------------------------------|
D|----------------------------------------------------------|
A|--------------2H4-----------------------------------------|
E|0000-00-00-02H4-------------------------------------------|

G|----------------------------------------------------------|
D|----------------------------------------------------------|
A|----------------------------------------------------------|
E|4444-44-44-4444-------------------------------------------|

[Bridge] (x4)
G|----------------------------------------------------------|
D|----------------------------------------------------------|
A|4--4---4-2--2---2-0--0—0-2--2---222-----------------------|
E|-----4-2------2-0----0-2----------------------------------|

[Solo]
G|----------------------------------------------------------|
D|----------------------------------------------------------|
A|4\0-------------------------------------------------------|
E|---7\0---5-0---7\0----------------------------------------|


************************************

| \  Slide down

************************************
Suggest correction
Give kudos to tab author, rate the tab!
1 2 3 4 5
comments
print report bad tab
guest
You may want to rate the tab now too:
select rating
Wanna post a correction for this tab? Suggest correction