Oops, an error
Loading. Please wait.

Search And Destroy Bass Tab

version 1
version 1

Whole song

Interactive

17,292 views 21 this week
no commentswrite comment
1 2 3 4 5
please rate
add to favorites
launch autoscroll
font size
0
reset
guitar tuner
Autoscroll
slow
fast
+/-
esc
set tempo
stop
Help us to improve Ultimate-Guitar.com Take our survey!
×
       ------------------------------------------------------
           Iggy Pop and the Stooges - Search and Destroy
       ------------------------------------------------------
Tuning: Standard G, D, A, E
Tabbed By: AngryAndCrusty

I couldn't believe that there was no bass tab to an awesome song like this one.
Especially a song by Iggy Pop. A Punk song with structure...
that's hard to find (^_^) kidding...(or am I? Nah, I am)
       ------------------------------------------------------
Intro:
G: -----------------------------------------------------------|
D: ----------4444---------------------------------------------|
A: 4-4---22-2-----44------------------------------------------|
E: ---444-----------------------------------------------------|

Verse:
G: ---------------------------------------------|
D:  -------2------------------------------------|   (+Intro)
A: 444444----000000-2---------------------------|
E: ---------------------------------------------|

Pre-Chorus:
G: -----------------------------------------------------------|
D: -----------------------------------------------------------|
A: 4--42—-20000---22------------------------------------------|
E: -44—-22-----0----------------------------------------------|

Chorus:
G: -----------------------------------------------------------|
D: -----------------------------------------------------------|
A: ------------------------------2\4--------------------------|
E: 1\2-22----22----22----22\4---------------------------------|

G: -----------------------------------------------------------|
D: -----------------------------------------------------------|
A: ---------------5H7-----------------------------------------|
E: 5555-55-55-55H7--------------------------------------------|

G: -----------------------------------------------------------|
D: -----------------------------------------------------------|
A: ---------------2H4-----------------------------------------|
E: 0000-00-00-02H4--------------------------------------------|

G: -----------------------------------------------------------|
D: -----------------------------------------------------------|
A: -----------------------------------------------------------|
E: 4444-44-44-4444--------------------------------------------|

Bridge:
G: -----------------------------------------------------------|
D: -----------------------------------------------------------|
A: 4--4---4-2--2---2-0--0—0-2--2---222------------------------|
E: ------4-2------2-0----0-2----------------------------------|

Solo:
G: -----------------------------------------------------------|
D: -----------------------------------------------------------|
A: 4\0--------------------------------------------------------|
E: ----7\0---5-0---7\0----------------------------------------|


Order:
Intro x2
Verse x3
Pre-Chorus x2
Chorus
Verse x2
Pre-Chorus x2
Chorus
Bridge x2
Intro x2
Verse x3
Pre-Chorus x2
Chorus
Bridge x4
Solo

 Hope it's accurate. I had to do this by ear. UP THE PUNX!
Suggest correction
What's this?
You can suggest a correction to this tab. Community and Mods will review your correction and vote to approve or reject it.
comments
We did not receive enough feedback on this tab! Please rate:
print report bad tab
1 2 3 4 5
guest
You may want to rate the tab now too:
select rating
Please do not post tabs as comments. Select "correction" instead!