Oops, an error
Loading. Please wait.

5Pm Fucked Up Tab

version 1
version 1

Solo

34 views 3 this week
no commentswrite comment
1 2 3 4 5
1 last vote to show rating
add to favorites
launch autoscroll
font size
0
reset
how to read this tab
guitar tuner
Autoscroll
slow
fast
+/-
esc
set tempo
stop
Help us to improve Ultimate-Guitar.com Take our survey!
×
Author
Difficulty
intermediate
The Story So Far
Fucked Up

Standard Tuning

[Solo]

E|--------------------------------------3-----3/5--3-----------------------------|
B|--------------------------------3/5-----5-----------5--3-----------------------|
G|-----------5/7--5--4--5--4--------------------------------4--------------------|
D|--5/7/5---------------------5--------------------------------7--5--------------|
A|----------------------------------------------------------------------5/7/5----|
E|-------------------------------------------------------------------------------|


E|--------------------------------3-----3--5--7--5--3----------------------------|
B|-----------------------------5-----5-----------------3/5/3---------------------|
G|-----------------------4--7-----------------------------------5/7--5--4--5--4--|
D|--------5h7--5/9--5------------------------------------------------------------|
A|--5h7--------------------------------------------------------------------------|
E|-------------------------------------------------------------------------------|


E|-------------------------------------3--5--3--------------5b-5b-5/7--5--3------|
B|----------------------------3--5--3-----------5--8--5--------------------------|
G|-----4--5--7--4--2--------4-----------------------------7----------------------|
D|--5-----------------5--7-------------------------------------------------------|
A|-------------------------------------------------------------------------------|
E|-------------------------------------------------------------------------------|

This part overlaps the preceding part, if you can transition 
fast enough it sounds fine.

E|----------10h12h10-------------------------------------------------------------|
B|--10h12--------------12--10--8--12--8--8--------8/10--8------------------------|
G|------------------------------------------9--7---------------------------------|
D|-------------------------------------------------------------------------------|
A|-------------------------------------------------------------------------------|
E|-------------------------------------------------------------------------------|

(/) Slide
(h) Hammer On
(b) Bend
Suggest correction
Give kudos to tab author, rate the tab!
1 2 3 4 5
comments
print report bad tab
guest
You may want to rate the tab now too:
select rating
Wanna post a correction for this tab? Suggest correction