Oops, an error
Loading. Please wait.

680 South Tab

version 1
version 1

Whole song

22,869 views 21 this week
no commentswrite comment
1 2 3 4 5
excellent!
x 8
add to favorites
launch autoscroll
font size
0
reset
how to read this tab
guitar tuner
Autoscroll
slow
fast
+/-
esc
set tempo
stop
Help us to improve Ultimate-Guitar.com Take our survey!
×
-----------------------------------------------------------------------------
                           680 South - The Story So Far
-----------------------------------------------------------------------------

Tabbed by: x3ricxblink182

Email: x3ricxblink182

Tuning: Drop D

Everyone should also check out my band Riverview at www.facebook.com/Riverviewmusic

Intro:

E|-------------------------------|
B|--7/5-555-7/5-555-7/5-555-8-7--|
G|--7-7-777-7-7-777-7-7-777-7-7--|
D|-------------------------------|
A|-------------------------------|
D|-------------------------------| x5

E|-------------|
B|-------------|
G|-------------|
D|-555x--555x--|
A|-555x--555x--|
D|-555x--555x--|


Pre-Verse:

E|---------------------------|
B|---------------------------|
G|-----------777-------------|
D|-99999-777-777-5555555555--|
A|-99999-777-555-5555555555--|
D|-99999-777-----5555555555--| x4


Verse:

E|-----------2~--------|
B|-------------3~------|
G|---------------2/4~~-|
D|--4~~----------------|
A|-/2~~----------------|
D|---------------------|

E|---------------------------|
B|---------------------------|
G|---------------------------|
D|-----------777-------------|
A|-99999-777-555-5555555555--|
D|-99999-777-----5555555555--| x2


Chorus:

E|-------------------------------------|
B|-------------------------------------|
G|-------------------------------------|
D|-5555555555555555-00000000-77777777--|
A|-5555555555555555-00000000-77777777--|
D|-5555555555555555-00000000-77777777--|

E|--------------------------------------|
B|--------------------------------------|
G|------------------1111-9-9-1211-9-7---|
D|-5555555555555555--x-x-x-x--x-x-x-x---|
A|-5555555555555555--9-9-7-7-10-9-7-5---|
D|-5555555555555555---------------------|

E|------------------------------------|
B|------------------------------------|
G|------------------------------------|
D|-0-7-5-4p0-7-5-4p2-7-5-4p2--7-5p4p2-|
A|------------------------------------|
D|------------------------------------| x3


Verse:

E|---------------------------|
B|---------------------------|
G|-----------777-------------|
D|-99999-777-777-5555555555--|
A|-99999-777-555-5555555555--|
D|-99999-777-----5555555555--| x2

E|-------------------------|
B|-------------------------|
G|-------------------------|
D|-99x-77x--5555555555555--|
A|-99x-77x--5555555555555--|
D|-99x-77x--5555555555555--|

E|---------------------------|
B|---------------------------|
G|-----------777-------------|
D|-99999-777-777-5555555555--|
A|-99999-777-555-5555555555--|
D|-99999-777-----5555555555--|


Chorus:

E|-------------------------------------|
B|-------------------------------------|
G|------------------77777777-----------|
D|-5555555555555555-77777777-77777777--|
A|-5555555555555555-55555555-77777777--|
D|-5555555555555555----------77777777--|

E|--------------------------------------|
B|--------------------------------------|
G|------------------1111-9-9-1211-9-7---|
D|-5555555555555555--x-x-x-x--x-x-x-x---|
A|-5555555555555555--9-9-7-7-10-9-7-5---|
D|-5555555555555555---------------------|

E|------------------------------------|
B|------------------------------------|
G|------------------------------------|
D|-0-7-5-4p0-7-5-4p2-7-5-4p2--7-5p4p2-|
A|------------------------------------|
D|------------------------------------| x3



Bridge:

E|---------------------------------------|
B|---------------------------------------|
G|---------------------------------------|
D|--5-\4-2---55-5-5-555-5-5-555-5-5-5-7--|
A|-----------55-5-5-555-5-5-555-5-5-5-7--|
D|-----------55-5-5-555-5-5-555-5-5-5/7--|

E|---------------------------------------|
B|---------------------------------------|
G|----1111-----1111-----1111-------------|
D|-55--x-x--55--x-x--55--x-x--5-7-777----|
A|-55-/9-9--55-/9-9--55-/9-9--5-7-777----|
D|-55-------55-------55-------5/7-777----| x4


End with:

E|-----------------|
B|-----------------|
G|-----------------|
D|-9-7-9-7-5-5-5x--|
A|-9-7-9-7-5-5-5x--|
D|-9-7/9-7-5-5-5x--|
Suggest correction
comments
print report bad tab
guest
You may want to rate the tab now too:
select rating
Please do not post tabs as comments. Select "correction" instead!