Oops, an error
Loading. Please wait.

Ali tab

1,664 views 12 this week
no commentswrite comment
1 2 3 4 5
x 3
add to favorites
×
Save as Personal and add changes to this tab that will be seen only by you. Learn more ›
×
You can save this tab as Personal to edit and correct it or add notes. All changes will be seen only by you. Learn more »
launch autoscroll
font size
0
reset
how to read this tab
guitar tuner
edit
Autoscroll
slow
fast
+/-
esc
set tempo
stop
-------------------------------------------------------------------------------
                             The Story So Far - Ali
-------------------------------------------------------------------------------
Tabbed by: Tim Lundin III
E-mail:

Tuning: Standard (EADGBe)
Some of this may be wrong, if it is feel free to correct me, thank you.

Guitar 1:
Intro/Pre-bridge
e|---------------------------------------------------------------------------|
B|---------------------------------------------------------------------------|
G|---------------------------------------------------------------------------|
D|-22222222-4444444-666666666666666-2222222-4444444--------------------------|
A|-00000000-2222222-444444444444444-0000000-2222222-22--22-------------------|
E|--------------------------------------------------00--00-------------------|
1st Verse (ring the 002 chord and then come in with this)
e|---------------------------------------------------------------------------|
B|---------------------------------------------------------------------------|
G|---------------------------------------------------------------------------|
D|-22222222-4444444-6666666666666666--(x3)-22222222-66666666-4444444444444444|
A|-00000000-2222222-4444444444444444-------00000000-44444444-2222222222222222|
E|---------------------------------------------------------------------------|
2nd Verse - This one has a weird strumming that's hard to type out, so I'll just give the chords.
e|---------------------------------------------------------------------------|
B|---------------------------------------------------------------------------|
G|---------------------------------------------------------------------------|
D|--2-6----------------------------------------------------------------------|
A|--0-4----------------------------------------------------------------------|
E|---------------------------------------------------------------------------|
Pre-chorus (The strumming is also a little odd here.)
e|---------------------------------------------------------------------------|
B|---------------------------------------------------------------------------|
G|---------------------------------------------------------------------------|
D|--666666666-22222222-4444-66/44--------------------------------------------|
A|--444444444-00000000-2222-44/22--------------------------------------------|
E|---------------------------------------------------------------------------|
Bridge (After the other guitar this comes in.)
e|---------------0000000-0000000-0-0-0-0-0-0-0-0-0-0-0-0-0-0-0---------------|
B|-7~--9~--12~---7777777-9999999-121212121212121212121212121212--------------|
G|---------------------------------------------------------------------------|
D|---------------------------------------------------------------------------|
A|---------------------------------------------------------------------------|
E|---------------------------------------------------------------------------|
Outro
e|---------------------------------------------------------------------------|
B|---------------------------------------------------------------------------|
G|---------------------------------------------------------------------------|
D|--2222222-4444444-6666666--------------------------------------------------|
A|--0000000-2222222-4444444-2222222---22x2x22--------------------------------|
E|--------------------------0000000---00x0x00~-------------------------------|

Guitar 2: This guitar is kind of confusing, but itpretty revolves around the same 3 chords.
Intro.prebridge
e|---------------------------------------------------------------------------|
B|---------------------------------------------------------------------------|
G|---------------------------------------------------------------------------|
D|--1010-/8-\6~(x3)---10/8\10/6----------------------------------------------|
A|--8--8-/6-\4~--------8/6\8/-4--4444444-666666-4444444-8-6-8-6--------------|
E|----------------0~---------------------------------------------------------|
                  *
1st Verse: This is also the part that is played picked in the intro/prebridge 
The part with chords has tricky strumming like the other guitar.       
e|---------4-----------------------------------------------------------------|
B|-----5-----5---5-----------------------------------------------------------|
G|--66---6------6------------------------------------------------------------|
D|-------------------10101010101010/8\6666-----------------------------------|
A|--------------------8-8-8-8-8-8-8/6\4444-----------------------------------|
E|---------------------------------------------------------------------------|
Prechorus This is confusing, just follow the root notes and make them octave chords
e|---------------------------------------------------------------------------|
B|---------------------------------------------------------------------------|
G|-66\1010/12\1010101010\121212/10\6-10/66-10/66-----------------------------|
D|-xxxxxxxxxxxxxxxxxxxxxxxxxxxxxxxxx--xxxxxxxx-------------------------------|
A|-44\8-8/10\8-8-8-8-8-8\101010/8\6---8/44--8/44-----------------------------|
E|---------------------------------------------------------------------------|

Bridge
e|---------------------------------------------------------------------------|
B|---------------------------------------------------------------------------|
G|---------------------------------------------------------------------------|
D|-66666666-44444444-2222222222222--2222222-44444444-6666666666666666--------|
A|-44444444-22222222-0000000000000--0000000-22222222-4444444444444444--------|
E|---------------------------------------------------------------------------|

There is a lot of repeating with these parts through the song, especially with the lead.
If you have any corrections, please leave them in the comments, thank you.
Also, the sliding might be a little off.

************************************

| /   slide up
| \   slide down
| h   hammer-on
| p   pull-off
| ~   vibrato
| +   harmonic
| x   Mute note
| b   Bend
| pb  Pre-bend
| br  Bend release
| pbr Pre-bend release
| brb Bend release bend

************************************

            
            
Suggest correction
Creating personal tab
Creating personal tab
You can edit any tab online and save it as your Personal.

You can edit, replace or remove any tab part or add personal notes – all changes will be seen only by you.

Personal tabs can be accessed anytime from any device, even offline.
Learn more »
Give kudos to tab author, rate the tab!
1 2 3 4 5
comments
print report bad tab
guest
You may want to rate the tab now too:
select rating
Wanna post a correction for this tab? Suggest correction