Oops, an error
Loading. Please wait.

All Wrong Tab

17,190 views 57 this week
1 commentread comment
1 2 3 4 5
x 4
add to favorites
launch autoscroll
font size
0
reset
how to read this tab
guitar tuner
Autoscroll
slow
fast
+/-
esc
set tempo
stop
Help us to improve Ultimate-Guitar.com Take our survey!
×
Author
Difficulty
Tuning
intermediate
D# G# C# F# A# D#
All Wrong by The Story So Far
Half Step Down

Done by ear and watching covers on youtube
Let me know if anything is off

For the rest of the songs off the album go to
http://www.youtube.com/user/PopPunkGuitarCovers
He has the songs I didn't put up tabbed and videos with them

[Intro]
D#|-----------------------2------2-------------------------------2-------------2--|
A#|------10-10--7b/5--3------3------------10-10--7b/5---3--------3----3--------3--|
F#|--7------------------0------0------7---------------0---0--0-0-0--0---0--0-0-0--|
C#|-------------------------------------------------------------------------------|
G#|-------------------------------------------------------------------------------|
D#|-------------------------------------------------------------------------------|
                                                             x x           x x

[Verse]
D#|--5------5------9----------------------------------------------------|
A#|------7------7------7-------3-5-5-3-5-7-5-3-------------------5------|
F#|----------------------------------------------------4-6-6-4-6---6-4--|
C#|---------------------------------------------------------------------|
G#|---------------------------------------------------------------------|
D#|---------------------------------------------------------------------|
                               x x x x x x x x         x x x x x x x x

D#|--5------5------9---------------------------------|
A#|------7------7------7-----------------------------|
F#|------------------------7-7--11/9\11---9--9--9-9--|
C#|--------------------------------------------------|
G#|------------------------5-5---9/7\9----7--7--7-7--|
D#|--------------------------------------------------|
                                                x
[Chorus]
D#|--------------------------------------------------------|-------|
A#|--------------------------------------------------------|-------|
F#|--------------------------------------------------------|-------|
C#|------5-4-0------------------------5-4-0----------------|-------|Do that every
G#|--2------------5-5-5-5-5-5---2-2----------5-5-5-5-5-5---|--5-5--|4th time
D#|--0------------3-3-3-3-3-3---0-0----------3-3-3-3-3-3---|--3-2--|

D#|-------------------------------------------------------------------|
A#|--10-----10-----10------5---5---5-----10-----10-----10-------7--5--|
F#|----11-----11-----11-----7---7---7------11-----11-----11-----------|
C#|------12-----12-----12----7---7---7-------12-----12-----12---------|
G#|-------------------------------------------------------------------|
D#|-------------------------------------------------------------------|

D#|--------------------------------------------------------------------------------|
A#|--10-----10-----10------5---5---5----10-----10-----10------5---5---5------7--5--|
F#|----11-----11-----11-----7---7---7-----11-----11-----11-----7---7---7-----------|
C#|------12-----12-----12----7---7---7------12-----12-----12----7---7---7----------|
G#|--------------------------------------------------------------------------------|
D#|--------------------------------------------------------------------------------|

[Post-Chorus]
D#|---------------------------------------------------|----------------------|
A#|--------7b---------7b--------7b--------------------|---------------10b----|
F#|--7-----------7----------7---------7---------9-7---|--9-7-9/12------------|
C#|-----9-----------9----------9--------9---7-9-------|----------------------|
G#|---------------------------------------------------|----------------------|
D#|---------------------------------------------------|----------------------|
                                                       After last time

[Verse]
D#|--5------5------9----------------------------------------------------|
A#|------7------7------7-------3-5-5-3-5-7-5-3-------------------5------|
F#|----------------------------------------------------4-6-6-4-6---6-4--|
C#|---------------------------------------------------------------------|
G#|---------------------------------------------------------------------|
D#|---------------------------------------------------------------------|
                               x x x x x x x x         x x x x x x x x

D#|--5------5------9---------------------------------|
A#|------7------7------7-----------------------------|
F#|------------------------7-7--11/9\11---9--9--9-9--|
C#|--------------------------------------------------|
G#|------------------------5-5---9/7\9----7--7--7-7--|
D#|--------------------------------------------------|
                                                x

[Bridge]
D#|----------------------------|
A#|----------------------------|
F#|-(4-4-4-4)(7-7-7-7)---------|
C#|--0-0-0-0--0-0-0-0----------|
G#|--2-2-2-2--5-5-5-5----------|
D#|----------------------------|

D#|-----------------------------------------------------------------------------|
A#|-----------------------------------------------------------------------------|
F#|---------------------------------------------------------(4-4-4-4)(7-7-7-7)--|
C#|----------------------------------------------------------0-0-0-0--0-0-0-0---|
G#|--5--5-5-5--5-5-5-5-5-5-5-5-5-5-5-5-5-5-5-5-5-5-5-5-5-5---2-2-2-2--5-5-5-5---|
D#|--3--3-3-3--3-3-3-3-3-3-3-3-3-3-3-3-3-3-3-3-3-3-3-3-3-3----------------------|
      x x    x x x x x x   x x   x x x x x x x x   x x x    

D#|-------------------|--0---0---0---0---0----|---|
A#|--5---5---5---5----|---3---3---3---3---3---|---|
F#|---7---7---7---7---|----2---2---2---2---2--|---|
C#|----7---7---7---7--|-----------------------|---|
G#|-------------------|-----------------------|-2-|
D#|-------------------|-----------------------|-0-|
   First time           Second time          End with

[Chorus]
D#|--------------------------------------------------------|-------|
A#|--------------------------------------------------------|-------|
F#|--------------------------------------------------------|-------|
C#|------5-4-0------------------------5-4-0----------------|-------|Do that every
G#|--2------------5-5-5-5-5-5---2-2----------5-5-5-5-5-5---|--5-5--|4th time
D#|--0------------3-3-3-3-3-3---0-0----------3-3-3-3-3-3---|--3-2--|

D#|-------------------------------------------------------------------|
A#|--10-----10-----10------5---5---5-----10-----10-----10-------7--5--|
F#|----11-----11-----11-----7---7---7------11-----11-----11-----------|
C#|------12-----12-----12----7---7---7-------12-----12-----12---------|
G#|-------------------------------------------------------------------|
D#|-------------------------------------------------------------------|

D#|--------------------------------------------------------------------------------|
A#|--10-----10-----10------5---5---5----10-----10-----10------5---5---5------7--5--|
F#|----11-----11-----11-----7---7---7-----11-----11-----11-----7---7---7-----------|
C#|------12-----12-----12----7---7---7------12-----12-----12----7---7---7----------|
G#|--------------------------------------------------------------------------------|
D#|--------------------------------------------------------------------------------|


************************************

| /    Slide up
| \    Slide down
| x    Dead note
| b    Bend
| (n)  Ghost note 

************************************
Suggest correction
comments
print report bad tab
1 comment total.
0 reply
andrewow2012 10 Oct 12, 2013 01:59 PM

Chorus
|-------------------------------------------------|
|-------------------------------------------------|
|-------------------------------------------------|
|------5/4p0--------------------5/4p0-------------|
|--2------------5-5-5555---2-2----------5-5-5555--|
|--0------------3-3-3333---0-0----------3-3-3333--|

i think the slide and pull off sounds a bit closer

guest
You may want to rate the tab now too:
select rating
Wanna post a correction for this tab? Suggest correction