Oops, an error
Loading. Please wait.

Bad Luck Tab

version 2
version 2

Whole song

  • Melodic part of the song https://www.youtube.com/watch?v=HZC_QiTcnaQ.
43 views 12 this week
no commentswrite comment
1 2 3 4 5
3 more votes to show rating
add to favorites
launch autoscroll
font size
0
reset
how to read this tab
guitar tuner
Autoscroll
slow
fast
+/-
esc
set tempo
stop
Help us to improve Ultimate-Guitar.com Take our survey!
×
Author
Difficulty
Tuning
novice
D# G# C# F# A# D#
The Story So Far

LEAD GUITAR


[Intro]

  eb|-------------------------------------------------------------5h7p5--------------|
  Bb|-------10-7------5h7p5--------------10-7---------5h7p5-------------7--5---------|
  Gb|-----7---------7-------7----------7------------7-------7------------------7~~\0-|
  Db|-7/9---------------------7----7/9------------------------7----------------------|
  Ab|--------------------------------------------------------------------------------|
  Eb|--------------------------------------------------------------------------------|


[Verse 1]

  eb|---------0~~-----5~~~--|
  Bb|-----3p0-------3-------|
  Gb|-2-2-------------------|
  Db|-----------------------|
  Ab|-----------------------|
  Eb|-----------------------|

  eb|---------0-------0-----------0----------5p0------------0--------2p0-----------0----------5p0---|
  Bb|-----3p0-----3p0---3-----3p0--------3p0-----3------3p0------3p0-----3-----3p0--------3p0-----3-|
  Gb|-2-2-------2---------2-2----------2------------2-2--------2-----------2-2----------2-----------|
  Db|-----------------------------------------------------------------------------------------------|
  Ab|-----------------------------------------------------------------------------------------------|
  Eb|-----------------------------------------------------------------------------------------------|

  eb|---------------------|
  Bb|---------------------|
  Gb|---------------------|
  Db|-4~~~-4~~~-4~~~-2~~~-|
  Ab|-2~~~-1~~~-4~~~-0~~~-|
  Eb|-----------2~~~------|


[Chorus]

  eb|-------------------------------------------------5-2---------|
  Bb|-----------------------------------------------3-------5h7p5-|
  Gb|-11-11-11-11-11-11-11-11-7-7-7-7-7-7-7-7-7-2h4-------7-------|
  Db|-12-12-12-12-12-12-12-12-9-9-9-9-9-9-9-9-9-------------------|
  Ab|-------------------------------------------------------------|
  Eb|-------------------------------------------------------------|

  eb|--------------------------------------------------------------------------------|
  Bb|----------------------------10~~~~----------------------------------------------|
  Gb|7---11-11-11-11--9--9--9--9-11-11--11-11--11-11--11-11--7-7--7-7--7-7--7-7--7\0-|
  Db|--7-12-12-12-12-12-12-12-12-12-12--12-12--12-12--12-12--9-9--9-9--9-9--9-9--9\0-|
  Ab|--------------------------------------------------------------------------------|
  Eb|--------------------------------------------------------------------------------|
  
  
[Verse 2]

  eb|---------------------------------------------|
  Bb|-7~~~~---------------------------------------|
  Gb|---------------------------------------------|
  Db|-------4~~~~~~~---0h2~~~p0---------4~~~~~~~--|
  Ab|---------------------------------------------|
  Eb|---------------------------------------------|

  eb|---------0-------0-----------0----------5p0------------0--------2p0-----------0----------5p0---|
  Bb|-----3p0-----3p0---3-----3p0--------3p0-----3------3p0------3p0-----3-----3p0--------3p0-----3-|
  Gb|-2-2-------2---------2-2----------2------------2-2--------2-----------2-2----------2-----------|
  Db|-----------------------------------------------------------------------------------------------|
  Ab|-----------------------------------------------------------------------------------------------|
  Eb|-----------------------------------------------------------------------------------------------|

  eb|---------------------|
  Bb|---------------------|
  Gb|---------------------|
  Db|-4~~~-4~~~-4~~~-2~~~-|
  Ab|-2~~~-1~~~-4~~~-0~~~-|
  Eb|-----------2~~~------|


[Chorus]

  eb|-------------------------------------------------5-2---------|
  Bb|-----------------------------------------------3-------5h7p5-|
  Gb|-11-11-11-11-11-11-11-11-7-7-7-7-7-7-7-7-7-2h4-------7-------|
  Db|-12-12-12-12-12-12-12-12-9-9-9-9-9-9-9-9-9-------------------|
  Ab|-------------------------------------------------------------|
  Eb|-------------------------------------------------------------|

  eb|--------------------------------------------------------------------------------|
  Bb|----------------------------10~~~~----------------------------------------------|
  Gb|7---11-11-11-11--9--9--9--9-11-11--11-11--11-11--11-11--7-7--7-7--7-7--7-7--7\0-|
  Db|--7-12-12-12-12-12-12-12-12-12-12--12-12--12-12--12-12--9-9--9-9--9-9--9-9--9\0-|
  Ab|--------------------------------------------------------------------------------|
  Eb|--------------------------------------------------------------------------------|
  
  eb|-------5p0-----|
  Bb|---3p0-----3p0-|
  Gb|-2-------------|
  Db|---------------|
  Ab|---------------|
  Eb|---------------|


[Outro]

  eb|--------------------------------------------------------------|
  Bb|-0-0-0-0-0-0-0-0-0-0-0-0-0-0-0-0-0-0-0-0-0-0-0--0-0-0-0-0-0-0-|
  Gb|-2-2-2-2-2-2-2/4-4-4-4-4-4-4-4/7-7-7-7-7-7-7-7~~7-7-7-7-7-7-7-|
  Db|--------------------------------------------------------------|
  Ab|--------------------------------------------------------------|
  Eb|--------------------------------------------------------------|
PM       X X   X X       X X   X X       X X   X X      X X   X X


I don't tab this, the credits are for this video
https://www.youtube.com/watch?v=HZC_QiTcnaQ


************************************

| h   Hammer-on
| p   Pull-off
| /   Slide up
| \   Slide down
| ~   Vibrato
| PM  Palm mute

************************************
Suggest correction
Give kudos to tab author, rate the tab!
1 2 3 4 5
comments
print report bad tab
guest
You may want to rate the tab now too:
select rating
Wanna post a correction for this tab? Suggest correction