Oops, an error
Loading. Please wait.

Clairvoyant Tab

version 1
version 1

Whole song

Interactive

170,455 views 672 this week
20 commentsread comments
1 2 3 4 5
excellent!
x 77
add to favorites
launch autoscroll
font size
0
reset
how to read this tab
guitar tuner
Autoscroll
slow
fast
+/-
esc
set tempo
stop
Help us to improve Ultimate-Guitar.com Take our survey!
×
Author
Artist: The Story So Far
Title: Clairvoyant
Album: Single
Tabbed by: angelic_sedition

This is my first attempt at transcribing a song, so any advice or suggested alterations
would be appreciated. I think it's fairly accurate, though some parts were pretty hard to
hear no thanks to the poor quality audio I had to listen to (particularly the outro).
Hopefully you'll get the basic idea though.

Tuning: C# G# D# G# C D#
(Thanks to TheBrendanHolmes of yt for the tuning; I originally had it tuned Db A# F C G#
C with 7th string barred for the verse. I think this is the actual tuning.)

It's a pretty simple song. Basically just a verse, chorus, and outro.

[2015.06.20] Edits:
- 0h1 not 0h3 as pointed out in comments
- Change fourth measure based on listening/watching the song live (https://youtu.be/o9-8y0gONC0)
- Changed last note on 16th measure of chorus (previously was same as second to last note)
- Removed non-existent note from second to last measure in outro
- Fixed fingering of outro to that suggested by blader360deshi

[Intro]

Play 2x:

D#|-------------------------|-----------------------|-----------------------|------------------------|
C |--12-----------10--------|--8-----------5--------|--3-----------0--------|------------------------|
G#|---------0------------0--|--------0-----------0--|--------0-----------0--|--0h2-----2-----2p0-----|
D#|------0------------0-----|-----0-----------0-----|-----0-----------0-----|-------0-------------0--|
G#|-------------------------|-----------------------|-----------------------|------------------------|
C#|--0---------0------------|--0--------0-----------|--0--------0-----------|--0----------0----------|

D#|-------------------------|-----------------------|-------------------------|-----------------------|
C |--12-----------10--------|--8-----------0--------|--0h1-----------0--------|--3-----------3--------|
G#|---------0------------0--|--------0-----------0--|----------0-----------0--|--------0-----------0--|
D#|------0------------0-----|-----0-----------0-----|-------0-----------0-----|-----0-----------0-----|
G#|--0---------0------------|--0--------0-----------|--0----------0-----------|--0--------0-----------|
C#|-------------------------|-----------------------|-------------------------|-----------------------|

** 4th measure:
Above is how it is played in the live version.
This is what it sounds like to me in the single/recording:

D#|-----------------------|
C |--------------0--------|
G#|--2-----2-----2--2--0--|
D#|-----0--5--------5-----|
G#|-----------------------|
C#|--0--------0-----------|

[Verse 1]

D#|-------------------------|-----------------------|-----------------------|------------------------|
C |--12-----------10--------|--8-----------5--------|--3-----------0--------|------------------------|
G#|---------0------------0--|--------0-----------0--|--------0-----------0--|--0h2-----2-----2p0-----|
D#|------0------------0-----|-----0-----------0-----|-----0-----------0-----|-------0-------------0--|
G#|-------------------------|-----------------------|-----------------------|------------------------|
C#|--0---------0------------|--0--------0-----------|--0--------0-----------|--0----------0----------|

D#|-------------------------|-----------------------|-------------------------|-----------------------|
C |--12-----------10--------|--8-----------0--------|--0h1-----------0--------|--3-----------3--------|
G#|---------0------------0--|--------0-----------0--|----------0-----------0--|--------0-----------0--|
D#|------0------------0-----|-----0-----------0-----|-------0-----------0-----|-----0-----------0-----|
G#|--0---------0------------|--0--------0-----------|--0----------0-----------|--0--------0-----------|
C#|-------------------------|-----------------------|-------------------------|-----------------------|


[Chorus]

D#|--0--------------------|-----------------------|-----------------------|-----------------------|
C |--------------5--------|--0-----------0--------|--1-----------3--------|--0-----------0--------|
G#|--------0-----------0--|--------0-----------0--|--------0-----------0--|--------0-----------0--|
D#|-----0-----------0-----|-----0-----------0-----|-----0-----------0-----|-----0-----------0-----|
G#|-----------------------|-----------------------|-----------------------|--0--------0-----------|
C#|--4--------4-----------|--2--------2-----------|--0--------0-----------|-----------------------|

D#|--0--------------------|-----------------------|-----------------------|-----------------------|
C |--------------5--------|--0-----------0--------|--1-----------3--1--0--|-----------------------|
G#|--------0-----------0--|--------0-----------0--|--------0-----------0--|--0-----0--0h2--4p0----|
D#|-----0-----------0-----|-----0-----------0-----|-----0-----------0-----|-----0-----------------|
G#|-----------------------|-----------------------|-----------------------|--0--------0-----------|
C#|--4--------4-----------|--2--------2-----------|--0--------0-----------|-----------------------|

D#|--0--------------------|-----------------------|-----------------------|-----------------------|
C |--------------5--------|--0-----------0--------|--1-----------3--------|--0-----------0--------|
G#|--------0-----------0--|--------0-----------0--|--------0-----------0--|--------0-----------0--|
D#|-----0-----------0-----|-----0-----------0-----|-----0-----------0-----|-----0-----------0-----|
G#|-----------------------|-----------------------|-----------------------|--0--------0-----------|
C#|--4--------4-----------|--2--------2-----------|--0--------0-----------|-----------------------|

D#|--0--------------------|-----------------------|-----------------------|-----------------------|
C |--------------5--------|--0-----------0--------|--1-----------3--------|-----------------------|
G#|--------0-----------0--|--------0-----------0--|--------0-----------0--|--0-----0--0--2--0-----|
D#|-----0-----------0-----|-----0-----------0-----|-----0-----------0-----|-----0--------------0--|
G#|-----------------------|-----------------------|-----------------------|--0--------0-----------|
C#|--4--------4-----------|--2--------2-----------|--0--------0-----------|-----------------------|

D#|-----------------------|-----------------------|-----------------------|--<12>----------------|
C |--------------0--------|--------------0--------|--------------0--------|--------<12>----------|
G#|--------0-----------0--|--------0-----------0--|--------0-----------0--|--------------<12>----|
D#|-----0-----------0-----|-----0-----------0-----|-----0-----------0-----|----------------------|
G#|-----------------------|-----------------------|-----------------------|----------------------|
C#|--0--------0-----------|--0--------0-----------|--0--------0-----------|----------------------|

[Verse 2]

Play verse/intro 2x (first time no singing).

[Chorus]

Play chorus again

[Outro] after harmonics
Slow down towards end.

D#|-------------------------|----------------------------|--------------------------|------------------------|
C |--12-----------10--------|--12h13-----------12--------|--10------------12--------|--10--------------------|
G#|---------0------------0--|------------0------------0--|---------0-------------0--|---------0-------------0|
D#|------0------------0-----|---------0------------0-----|------0-------------0-----|------0---------12--0---|
G#|-------------------------|----------------------------|--10--------10------------|--10--------10----------|
C#|--0---------0------------|--0------------0------------|--------------------------|------------------------|

D#|-----------------------|-----------------------|-----------------------|-----------------------|
C |--8-----------8--------|--8-----------8--------|--8-----------8--------|--8-----------8--------|
G#|--------0-----------0--|--------0-----------0--|--------0-----------0--|--------0-----------0--|
D#|-----0-----------0-----|-----0-----------0-----|-----0-----------0-----|-----0-----------0-----|
G#|--9--------9-----------|--9--------9-----------|--8--------8-----------|--8--------8-----------|
C#|-----------------------|-----------------------|-----------------------|-----------------------|

D#|-----5-----|-----|
C |--------0--|-----|
G#|--7--------|-----|
D#|-----------|-----|
G#|-----------|--0--|
C#|-----------|--0--|

Sounds brighter if you play more open strings at the end. Cheers.

*******************************


 natural harmonic
 h  Hammer on
 p  Pull

*******************************
Suggest correction
What's this?
You can suggest a correction to this tab. Community and Mods will review your correction and vote to approve or reject it.
comments
print report bad tab
20 comments total. Showing first comments.
0 reply
AsILayDying504 1,108 wrote on July 1 2013, 12:08 am

Awesome job man! This tab is perfect. I play the ending a little different finger placement wise but thank you so much for this. Perfect tab for a perfect song.

0 reply
Alvie88 11 wrote on July 15 2013, 09:32 pm

http://www.youtube.com/watch?v=Ap2NBq1KyAA

0 reply
anglic_sedition 256 wrote on August 4 2013, 04:20 pm

Not getting anything from that link

guest
You may want to rate the tab now too:
select rating
Please do not post tabs as comments. Select "correction" instead!