Oops, an error
Loading. Please wait.

Closure Tab

version 1
version 1

Whole song

Interactive

11,713 views 30 this week
4 commentsread comments
1 2 3 4 5
accurate
x 6
add to favorites
launch autoscroll
font size
0
reset
how to read this tab
guitar tuner
Tab Pro tools
  • play this tab
  • loop segment
  • change instrument
  • show fretboard
  • metronome
Autoscroll
slow
fast
+/-
esc
set tempo
stop
Contributor
Difficulty
----------------------------------------------------------------------------
                           Closure - The Story So Far
-----------------------------------------------------------------------------

Tabbed by: x3ricxblink182

Email: x3ricxblink182@aim.com

Tuning: Drop D

http://www.myspace.com/thestorysofarca


Intro:

E|----------------|
B|-0--0-0-0--0-0--|
G|-4/1111-6/-8-8--|
D|----------------|
A|----------------|
E|----------------| x4

E|------------------------------------|
B|------------------------------------|
G|------8-8-------8-8-----------------|
D|-2-2--x-x--2-2--x-x--666666-444444--|
A|-2-2-/6-6--2-2-/6-6--666666-444444--|
E|-0-0-------0-0-------444444-222222--|

E|------------------------------------|
B|------------------------------------|
G|-1111--8-8-1111--8-8----------------|
D|--x-x--x-x--x-x--x-x--666666-444444-|
A|--9-9-/6-6--9-9-/6-6--666666-444444-|
E|----------------------444444-222222-| x3


Verse:
E|----------------|
B|-0--0-0-0--0-0--|
G|-4/1010-6/-8-8--|
D|--------8--9-9--|
A|----------------|
E|----------------| x4

E|------------------------------------|
B|------------------------------------|
G|------------------------------------|
D|-2-xxxx-2-2-xxxx-2-6-xxxx-6-4-xxxx--|
A|-2-xxxx-2-2-xxxx-2-6-xxxx-6-4-xxxx--|
E|-0-xxxx-0-0-xxxx-0-4-xxxx-4-2-xxxx--| x4

E|--------------------|
B|--------------------|
G|-88-88-66-66-6-44---|
D|-xx-xx-xx-xx-x-xx---|
A|-66-66-44-44-4/22---|
E|--------------------| x4

E|---------------------|
B|---------------------|
G|-88-88-1111-66-666---|
D|-xx-xx--x-x-xx-xxx---|
A|-66-66--9-9-44-444-/-|
E|---------------------| x4

E|------------------------------------|
B|------------------------------------|
G|------8-8-------8-8-----------------|
D|-2-2--x-x--2-2--x-x--666666-444444--|
A|-2-2-/6-6--2-2-/6-6--666666-444444--|
E|-0-0-------0-0-------444444-222222--|

E|-------|
B|-------|
G|-------|
D|-2~~~--|
A|-2~~~--|
E|-0~~~--|


Pre-chorus:

E|---------------------|
B|---------------------|
G|--8-8-8-8-6-6-333-4--|
D|--x-x-x-x-x-x-xxx-x--|
A|--6-6-6-6-4-4-111/2--|
E|---------------------| x4

E|----------------|
B|-0--0-0-0--0-0--|
G|-4/1010-6/-8-8--|
D|----------------|
A|----------------|
E|----------------|


Chorus:

E|----------------------------------------|
B|----------------------------------------|
G|-44444--9-888-444--66666--9-888--1111---|
D|-xxxxx--x-xxx-xxx--xxxxx--x-xxx---xxx---|
A|-22222-/7-666-222--44444-/7-666-//999---|
E|----------------------------------------| x4

E|-------|
B|-------|
G|-------|
D|-2~~~--|
A|-2~~~--|
E|-0~~~--|

E|----------|
B|----------|
G|--6-4~~~--|
D|--x-x~~~--|
A|--4\2~~~--|
E|----------|



Bridge:
E|-------------|
B|-------------|
G|-------------|
D|-222-222222--|
A|-222-222222--|
E|-000-000000--| x2

E|-------------|
B|-0-0-0-0~~---|
G|-4-6-8-4~~---|
D|-------------|
A|-------------|
E|-------------|

E|-------------|
B|-0-0-0-0~~---|
G|-4-6-3-4~~---|
D|-------------|
A|-------------|
E|-------------|

Outro:

E|----------------|
B|-0-0-0-0-0-0-0--|
G|-4-6-8-3-3-3/4--|
D|----------------|
A|----------------|
E|----------------| x14

E|-------------|
B|--0~~--0-0---|
G|--4~~--6/8---|
D|-------------|
A|-------------|
E|-------------|

End on:

E|----------|
B|--0~~~~---|
G|-11~~~~---|
D|--9~~~~---|
A|----------|
E|----------|
comments
print report bad tab
4 comments total. Showing first comments.
0 reply
PaytonFIA wrote on August 28 2011, 07:47 pm

It should be 4/11 then 6/8 instead of 4/10 in the beginning part. Also, they play in standard.

0 reply
x3ricxblink182 wrote on August 28 2011, 08:13 pm

Sorry about that, careless mistake

0 reply
xxDom1157xx wrote on November 22 2011, 04:47 pm

do you think you could figure the song Four years out by them?

I want to post or [tab]
guest
You may want to rate the tab now too:
select rating
Please do not post tabs as comments. Select "correction" instead!