Oops, an error
Loading. Please wait.

Daughters Bass Tab

version 1
version 1

Whole song

3,263 views 12 this week
3 commentsread comments
1 2 3 4 5
x 4
add to favorites
launch autoscroll
font size
0
reset
guitar tuner
Autoscroll
slow
fast
+/-
esc
set tempo
stop
Help us to improve Ultimate-Guitar.com Take our survey!
×
Difficulty
intermediate
Hello, it's my first tab.

This is the Bass tab for Daughters when Parker Cannon sing, it doesn't contain the 
instrumental at the end !
Probably not 100% accurate but sound kinda good !
Standard tuning EADG.


0:00-0:10

G|---------------------------------------------------------------------|
D|---------------------------------------------------------------------|
A|-------3-3-3-3-3-3-3-3-3-3-3-3-3-------------------------------------|
E|-3-3-3---------------------------0-0-0-2-2-2-3-3-3-3-3-3-3-3-3-3-3-3-|

G|-----------------------------------------------------|
D|-----------------------------------------------------|
A|-------3-3-3-3-3-3-3-3-3-3-3-3-3-------------3~~-----|
E|-3-3-3---------------------------0-0-0-2-2-2---------|


0:12-0:35

G|-----------------------------------------------------------------|
D|-----------------------------------------------------------------|
A|-------------3-3-3-3-3-3-3-3-3-3-------------0-0-0-0-0-0-0-0-0-0-| x4
E|-0-0-0-0-0-0---------------------3-3-3-3-3-3---------------------|


0:45-1:08

G|-------------------------------------------------------------|
D|-------------------------------------------------------------|
A|-------------3---3-3-3-3-3-3-3-------------------------------| x4
E|-3-3-3-3-3-3-------------------3-3-3-3-3-3-5---5-5-5-5-5-5-5-|


1:09-1:32

G|-----------------------------------------------------------------|
D|-----------------------------------------------------------------|
A|---------3-3-3-3-3-3-3-3-3-3-3-3---------------------------------| x4
E|-3-3-3-3-------------------------0-0-0-2-2-2-3-3-3-3-3-3-3-3-3-3-|

Thanks for watching this and hope you enjoyed !

Don't forget : DEFEND POP-PUNK AND PIZZA BROS !
Suggest correction
comments
print report bad tab
3 comments total.
0 reply
liamoliverrr 10 Jan 04, 2014 08:47 AM

Good tab, but it's only half the song!

0 reply
TankBass 10 Jan 10, 2014 02:09 PM

Nice tab! I love playing this song, still trying to learn the rest of it though. Hey do you think you might be able to tab out Empty Space by The Story So Far for bass?

0 reply
tlamere 10 Sep 17, 2014 04:59 PM

The solo/outro for guitar 1 on the guitar tab works perfect as far as I can tell. Please just add that to this.

guest
You may want to rate the tab now too:
select rating
Wanna post a correction for this tab? Suggest correction