Oops, an error
Loading. Please wait.

Distaste tab

1,300 views 27 this week
no commentswrite comment
1 2 3 4 5
x 3
add to favorites
×
Save as Personal and add changes to this tab that will be seen only by you. Learn more ›
×
You can save this tab as Personal to edit and correct it or add notes. All changes will be seen only by you. Learn more »
launch autoscroll
font size
0
reset
how to read this tab
guitar tuner
edit
Autoscroll
slow
fast
+/-
esc
set tempo
stop
-------------------------------------------------------------------------------
                             Distaste - The Story So Far
-------------------------------------------------------------------------------
Tabbed by: Mike
E-mail: 14caiom@gmail.com

Tuning:Half Step Down

::Rhythm and Lead//


:Rhythm::

Intro/Verse:
(the 5's in the first part could be 0's and the 5's and the second part should really be 2's
 i'm pretty sure thats how he plays it)

e|---------------------------------------------------------------------------|
B|---------------------------------------------------------------------------|
G|---------------------------------------------------------------------------|
D|--000-000--0-0-0-5-5-5-0-0-0-5-5-5-0-0-0-5-5-5-----------------------------|
A|--222h333--7-7-7-7-7-7-7-7-7-7-7-7-7-7-7-7-7-7-----------------------------|
E|---------------------------------------------------------------------------|
Mute           . .   . .   . .   . .   . .   . .

e|---------------------------------------------------------------------------|
B|---------------------------------------------------------------------------|
G|---------------------------------------------------------------------------|
D|--000-000--5-5-5-2-2-2-5-5-5-2-2-2-5-5-5-2-2-2-----------------------------|
A|--222h333--0-0-0-0-0-0-0-0-0-0-0-0-0-0-0-0-0-0-----------------------------|
E|---------------------------------------------------------------------------|
Mute           . .   . .   . .   . .   . .   . .



Transition(0:33)                Pre-chorus(0:34)
                                (he lets them ring out then mutes)
e|---------------------------------------------------------------------------|
B|---------------------------------------------------------------------------|
G|------------------------------------5--------------------------------------|
D|------------------------------------5--------5-----5-----5/7---------------|
A|-------------2-3-2------------------3--------5-----5-----5/7---------------|
E|------3--333---------------------------------3-----3-----3/5---------------|


Chorus(0:38)

e|---------------------------------------------------------------------------|
B|---------------------------------------------------------------------------|
G|---5---5-5-5-5-------------------------------------------------------(x2)--|
D|---5---5-5-5-5------5---5-5-5-5-----5---5-5-5-5-----7---7-7-7-7------------|
A|---3---3-3-3-3------5---5-5-5-5-----5---5-5-5-5-----7---7-7-7-7------------|
E|--------------------3---3-3-3-3-----3---3-3-3-3-----5---5-5-5-5 -----------|

e|---------------------------------------------------------------------------|
B|---------------------------------------------------------------------------|
G|---5---5-5-5-5-------------------------------------------------------------|(x2 almost)
D|---5---5-5-5-5-----5-5---5-5-5-5----5-5---5-5-5-5----5/7---7-7-7-7---------|
A|---3---3-3-3-3-----5-5---5-5-5-5----5-5---5-5-5-5----5/7---7-7-7-7---------|
E|-------------------3-3---3-3-3-3----3-3---3-3-3-3----3/5---5-5-5-5 --------|
mute     . . . .           . . . .          . . . .         

Verse(0:53)
Transition and Pre chorus(1:28)
Chorus(1:32)

After Chorus(1:49)
e|---------------------------------------------------------------------------|
B|---------------------------------------------------------------------------|
G|---------------------------------------------------------------------------|
D|--5------------------------------------------------------------------------|
A|--5------------------------------------------------------------------------|
E|--3------------------------------------------------------------------------|
  
Bridge(2:06)

e|---------------------------------------------------------------------------|
B|---------------------------------------------------------------------------|
G|---------------------------------------------------------------------------|
D|---------------------------------------------------------------------------|
A|--------------0-0-2-2-0-0-------------3-3-3-3-3-3--------------------------|
E|--3-3-3-3-3-3-------------0-0-0-0-0-0--------------------------------------|
m   . . . . . . . . . . . . . . . . . . . . . . . .


e|----------------------------------------------------------------|
B|----------------------------------------------------------------|
G|----------------------------------------------------------------|
D|----------------------------------------------------------------|
A|--------------0-0-2-2-0-0---------------------------------------|
E|--3-3-3-3-3-3-------------0-0-0-0-0-0-0-0-0-0-0-0---------------|
m   . . . . . . . . . . . . . . . . . . . . . . . .


Pre Chorus(2:22) x2
Chorus(2:31) (Its Extended)

Ends like:
e|---------------|
B|---------------|
G|---------------|
D|----7---5------|
A|----7---5------|
E|----5---3------|



///////////////////////////LEAD//////////////////


Transition(0:16)

e|---------------------------------------------------------------------------|
B|-----10/12---10/8--8-8-----------------------------------------------------|
G|------0--0----0-0--0-0-----------------------------------------------------|
D|---------------------------------------------------------------------------|
A|---------------------------------------------------------------------------|
E|---------------------------------------------------------------------------|


Verse(0:17)

e|-----------------------------------------------------------------------|
B|--10h12-12-12--10h12-12-12---10h12-12-12---10\8--8--10-----------------|
G|---0-0--0--0----0-0--0--0-----0-0--0--0-----0-0--0--0------------------|
D|-----------------------------------------------------------------------|
A|-----------------------------------------------------------------------|
E|-----------------------------------------------------------------------|

e|-----------------------------------------------------------------------|
B|--10h12-12-12--10h12-12-12---10h12-12-12---15---17---15----------------|
G|---0-0--0--0----0-0--0--0-----0-0--0--0-----0---0---0------------------|
D|-----------------------------------------------------------------------|
A|-----------------------------------------------------------------------|
E|-----------------------------------------------------------------------|


Pre chorus:
e|---------------------------------------------------------------------------|
B|----12------8------8------10-----------------------------------------------|
G|----0-------0------0------0------------------------------------------------|
D|---------------------------------------------------------------------------|
A|---------------------------------------------------------------------------|
E|---------------------------------------------------------------------------|

Chorus(0:38)

e|---------------------------------------------------------------------------|
B|--10h12-12-12--10\8--8-10---10h12-12-12----15---17---15--------------------|
G|---0-0--0--0----0-0--0--0-----0-0--0--0----0----0----0---------------------|
D|---------------------------------------------------------------------------|
A|---------------------------------------------------------------------------|
E|---------------------------------------------------------------------------|


Verse 2(0:55)(different than first)

e|-----------------------------------------------------------------------|
B|--10h12-12-12--10h12-12-12---10h12-12-12---10\8--8--10-----------------|
G|---0-0--0--0----0-0--0--0-----0-0--0--0-----0-0--0--0------------------|
D|-----------------------------------------------------------------------|
A|-----------------------------------------------------------------------|
E|-----------------------------------------------------------------------|

e|-----------------------------------------------------------------------|
B|--10h12-12-12--10h12-12-12---10h12-12-12---15-15-15-15-15-15-----------|
G|---0-0--0--0----0-0--0--0-----0-0--0--0----0--0--0--0--0--0------------|
D|-----------------------------------------------------------------------|
A|-----------------------------------------------------------------------|
E|-----------------------------------------------------------------------|


ALTERNATE FIRST PART VERSE 2(Heard this on a live recording)
e|------------------------------------------------------------------|
B|--10h12-12-12--10h12-12-12---10h12-12---13--12/10--8--8-----------|
G|---0-0--0--0----0-0--0--0-----0-0--0----0---0--0---0--0-----------|
D|------------------------------------------------------------------|
A|------------------------------------------------------------------|
E|------------------------------------------------------------------|

Pre Chorus
Chorus(1:32)


After Chorus(1:52)

e|---------------------------------------------------------------------------|
B|--12----10h12p10/8---------------------------------------------------------|
G|--0-----0--0---0-0---------------------------------------------------------|
D|---------------------------------------------------------------------------|
A|---------------------------------------------------------------------------|
E|---------------------------------------------------------------------------|

Bridge(1:57)                                   ( Alternate last note)
                                                    First><   Then><    repeat
e|----------------------------------------------------|------|-----------------|
B|---------3--------7p0--8p0--7p0--3-3----------------|------|-----0-----------|
G|--0h2/4-----4p0---------------------------2h4p2p0---|------|-----------------|
D|--------------------------------------2-------------|--0---|-----------------|
A|----------------------------------------------------|------|-----------------|
E|----------------------------------------------------|------|-----------------|

Pre Chorus
Chorus(2:30)

end:
e|---------------------------------------------------------------------------|
B|---------------------------------------------------------------------------|
G|--4------------------------------------------------------------------------|
D|---------------------------------------------------------------------------|
A|---------------------------------------------------------------------------|
E|---------------------------------------------------------------------------|

************************************

| /   slide up
| \   slide down
| h   hammer-on
| p   pull-off
| x   Mute note
| b   Bend

************************************

            
            
Suggest correction
Creating personal tab
Creating personal tab
You can edit any tab online and save it as your Personal.

You can edit, replace or remove any tab part or add personal notes – all changes will be seen only by you.

Personal tabs can be accessed anytime from any device, even offline.
Learn more »
Give kudos to tab author, rate the tab!
1 2 3 4 5
comments
print report bad tab
guest
You may want to rate the tab now too:
select rating
Wanna post a correction for this tab? Suggest correction