Oops, an error
Loading. Please wait.

Empty Space Bass Tab

version 1
version 1

Whole song

Interactive

4,457 views 45 this week
no commentswrite comment
1 2 3 4 5
excellent!
x 5
add to favorites
launch autoscroll
font size
0
reset
guitar tuner
Tab Pro tools
  • play this tab
  • loop segment
  • change instrument
  • show fretboard
  • metronome
Autoscroll
slow
fast
+/-
esc
set tempo
stop
Contributor
Tuning
D# G# C# F# A# D#
Artist: The Story So Far
Album: What You Don’t See
Track: Empty Space
Tuning: Half step down (EbAbDbGb)

Intro
Gb|--------------------------------|--------------------------------|
Db|--------------------------------|--------------------------------| 
Ab|--------------------------------|--------------------------------| 
Eb|--------------------------------|---------------------------3-3\-|

Gb|--------------------------------|--------------------------------|
Db|--------------------------------|--------------------------------| 
Ab|--------------------------------|--------------------------------| 
Eb|-3---3-3---3-3-----3-3-3-3---3--|-3---3-3---3-3-----3-3-3-3--3---|

Gb|--------------------------------|--------------------------------|
Db|--------------------------------|--------------------------------| 
Ab|-3---3-3---3-3-----3-3-3-3---3--|-3---3-3---3-3-----3-3-3-5-5-3--|
Eb|--------------------------------|--------------------------------|

Gb|--------------------------------|--------------------------------|
Db|--------------------------------|--------------------------------| 
Ab|--------------------------------|--------------------------------| 
Eb|-3---3-3---3-3-----3-3-3-3---3--|-3---3-3---3-3-----3-3-3-3--3---|

Verse 1
Gb|--------------------------------|--------------------------------|
Db|--------------------------------|--------------------------------| 
Ab|-3-3-3-3-3-3--------------------|--------------------------------| 
Eb|-------------3------------------|--------------------------------|

Gb|--------------------------------|--------------------------------|
Db|--------------------------------|--------------------------------| 
Ab|--------------------------------|--------------------------------| 
Eb|--------------------------------|--------------------------------|

Gb|--------------------------------|--------------------------------|
Db|--------------------------------|--------------------------------| 
Ab|-3-3-3-3-3-3--------------------|--------------------------------| 
Eb|-------------3-3-3-3-3-3-3-3-3-3|-3-3-3-3-3-3-3-3-3-3-3-3-3-3-3-3|

Gb|--------------------------------|--------------------------------|
Db|--------------------------------|---------------------------2-5--| 
Ab|-3-3-3-3-3-3--------------------|-----------------------3-3------| 
Eb|-------------3-3-3-3-3-3-3-3-3-3|-3-3-3-3-3-3-3-3-3-3-3----------|

Chorus
Gb|--------------------------------|--------------------------------|
Db|--------------------------------|--------------------------------| 
Ab|-3---3---x-x---3---3---3---3----|-3---3---x-x---3---3------------| 
Eb|--------------------------------|-----------------------3---3----|

Gb|--------------------------------|--------------------------------|
Db|--------------------------------|--------------------------------| 
Ab|--------------------------------|--------------------------------| 
Eb|-5---5---x-x---5---5---5---5----|-5---5---x-x---5---5---3---3----|

Gb|--------------------------------|--------------------------------|
Db|--------------------------------|--------------------------------| 
Ab|-3---3---x-x---3---3---3---3----|-3---3---x-x---3---3------------| 
Eb|--------------------------------|-----------------------3---3----|

Gb|--------------------------------|--------------------------------|
Db|--------------------------------|--------------------------------| 
Ab|--------------------------------|---------------5---2------------| 
Eb|-5---5---x-x---5---5---5---5----|-5---5---x-x-----------5---3----|

Verse 2
Gb|--------------------------------|--------------------------------|
Db|--------------------------------|--------------------------------| 
Ab|--------------------------------|--------------------------------| 
Eb|---------------3-----3-3-3-3-3-3|-3-3-3-3-3-3-3-3-3-3-3-3-3-3-3-3|

Gb|--------------------------------|--------------------------------|
Db|--------------------------------|-2-2-2-2-2-2-2-2-2-2-2-2-5-5-5--| 
Ab|-3-3-3-3-3-3--------------------|--------------------------------| 
Eb|-------------0-0-0-0-0-0-0-0-0-0|--------------------------------|

Gb|--------------------------------|--------------------------------|
Db|--------------------------------|--------------------------------| 
Ab|-3-3-3-3-3-3--------------------|--------------------------------| 
Eb|-------------3-3-3-3-3-3-3-3-3-3|-3-3-3-3-3-3-3-3-3-3-3-3-3-3-3-3|

Gb|--------------------------------|--------------------------------|
Db|--------------------------------|--------------------------------| 
Ab|-3-3-3-3-3-3--------------------|--------------------------------| 
Eb|-------------0-0-0-0-0-0-0-0-0-0|-0-0-0-0-0-0-0-0-0-0-0-0-0-0-0-0|

Bridge
Gb|--------------------------------|--------------------------------|
Db|--------------------------------|--------------------------------| 
Ab|--------------------------------|--------------------------------|
Eb|--------------------------------|--------------------------------|

Gb|--------------------------------|--------------------------------|
Db|--------------------------------|--------------------------------| 
Ab|--------------------------------|--------------------------------| 
Eb|--------------------------------|----------------------------12\-|

Gb|--------------------------------|--------------------------------|
Db|--------------------------------|--------------------------------| 
Ab|-3-----3-----3------------------|--------------------------------| 
Eb|--------------------------------|-5-----5-----5------------------|

Gb|--------------------------------|-------------------------5------|
Db|--------------------------------|-------------5-----5-7-5---5-7--| 
Ab|--------------------------------|-------5------------------------| 
Eb|-3-----3-----3------------------|-3------------------------------|

Gb|-5-----5-----5------------------|--------------------------------|
Db|--------------------------------|-7-----7-----7------------------| 
Ab|--------------------------------|--------------------------------| 
Eb|--------------------------------|---------------------------3-3\-|

Gb|--------------------------------|--------------------------------|
Db|--------------------------------|--------------------------------| 
Ab|--------------------------------|--------------------------------| 
Eb|-3-3-3-3-3-3-3-3-3-3-3-3-3-3-3-3|-3-3-3-3-3-3-3-3-3-3-3-3-3-3-3-3|

Gb|--------------------------------|--------------------------------|
Db|--------------------------------|--------------------------------| 
Ab|-3-3-3-3-3-3-3-3-3-3-3-3-3-3-3-3|--------------------------------|
Eb|--------------------------------|-5-5-5-5-5-5-5-5-5-5-5-5-5-5-5-5|

Gb|--------------------------------|--------------------------------|
Db|--------------------------------|--------------------------------| 
Ab|--------------------------------|--------------------------------| 
Eb|-3-3-3-3-3-3-3-3-3-3-3-3-3-3-3-3|-3-3-3-3-3-3-3-3-3-3-3-3-3-3-3-3|

Last Chorus
Gb|--------------------------------|--------------------------------|
Db|--------------------------------|--------------------------------| 
Ab|--------------------------------|--------------------------------| 
Eb|--------------------------------|-----------------------3-3-3-3--|

Gb|--------------------------------|--------------------------------|
Db|--------------------------------|--------------------------------| 
Ab|--------------------------------|--------------------------------| 
Eb|-5---5---x-x---5---5---5---5----|-5---5---x-x---5---5---3---3----|

Gb|--------------------------------|--------------------------------|
Db|--------------------------------|--------------------------------| 
Ab|-3---3---x-x---3---3---3---3----|-3---3---x-x---3---3------------| 
Eb|--------------------------------|-----------------------3---3----|

Gb|--------------------------------|--------------------------------|
Db|--------------------------------|--------------------------------| 
Ab|--------------------------------|---------------5---2------------| 
Eb|-5---5---x-x---5---5---5---5----|-5---5---x-x-----------5---3----|

Gb|--------------------------------|--------------------------------|
Db|-----------------------5--------|---------------5---4-------2----| 
Ab|-3---3---x-x---3---3-------3----|-3---3---x-x-----------5--------| 
Eb|--------------------------------|--------------------------------|

Gb|--------------------------------|--------------------------------|
Db|--------------------------------|--------------------------------| 
Ab|-----------------------7--------|--------------------------------| 
Eb|-5---5---x-x---5---5-------5----|-5---5---x-x---5---5---3---3----|

Gb|--------------------------------|--------------------------------|
Db|-----------------------5--------|---------------5---4-------2----| 
Ab|-3---3---x-x---3---3-------3----|-3---3---x-x-----------5--------| 
Eb|--------------------------------|--------------------------------|

Gb|--------------------------------|--------------------------------|
Db|--------------------------------|--------------------------------| 
Ab|-----------------------7--------|---------------5---2------------| 
Eb|-5---5---x-x---5---5-------5----|-5---5---x-x-----------5---3----|
comments
print report bad tab
I want to post or [tab]
guest
You may want to rate the tab now too:
select rating
Please do not post tabs as comments. Select "correction" instead!