Oops, an error
Loading. Please wait.

Face Value Bass Tab

version 1
version 1

Whole song

595 views 3 this week
2 commentsread comments
1 2 3 4 5
please rate
add to favorites
launch autoscroll
font size
0
reset
guitar tuner
Autoscroll
slow
fast
+/-
esc
set tempo
stop
Help us to improve Ultimate-Guitar.com Take our survey!
×
Author
Difficulty
intermediate
-------------------------------------------------------------------------------
                             FACE VALUE - The Story So Far
-------------------------------------------------------------------------------
Tabbed by: Max Schramp
E-mail: maxschramp@gmail.com

Tuning: Standard (EADG)

These are the notes, listen to song for time and pauses. I grouped into 4's for easier reading.

(Pause) then Intro:
G|-----------------------|
D|-----------------------| x3
A|-2-2-x-x-2-2-x-x-2-x-x-|
E|-----------------------|

Verse:
G|-----------------------------------------------------------------|
D|-----------------------------------------------------------------| x2
A|---------------2222-2222-2222-2222-----------4444-2222-2222-2222-|
E|-2222-2222-4444--------------------2222-2222---------------------|

Pre Chorus:
G|----------------|
D|----------------| x1
A|-2~-----1/2~----|
E|----------------|

Chorus:
G|----------------------------------------|
D|----------------------------------------| x2
A|-4444-4422-2222-2222--------------------|
E|---------------------2222-2244-4444-4444|

(Pause) then Verse:
G|-----------------------------------------------------------------|
D|-----------------------------------------------------------------| x2
A|---------------2222-2222-2222-2222-----------4444-2222-2222-2222-|
E|-2222-2222-4444--------------------2222-2222---------------------|

Chorus:
G|----------------------------------------|
D|----------------------------------------| x4
A|-4444-4422-2222-2222--------------------|
E|---------------------2222-2244-4444-4444|

Bridge:
G|----------------|
D|----------------| x1
A|-2~-------------|
E|----------------|

(Pause) then 
G|-----------------------|-----------------------|-----------------------|-----------------------|
D|-----------------------|-------------------4-2-|-----------------------|-----------------------| x2
A|-2-2-x-x-2-2-x-x-2-x-x-|-------------2-4-x-----|-2-2-x-x-2-2-x-x-2-x-x-|-----------------------|
E|-----------------------|-2-2-x-2-4-x-----------|-----------------------|-4-4-x-4-4-x-4-4-x-4-4-|

(Listen to this part, I don't think I got the notes all in the right spot)
G|-4444-4666------------------------------|
D|-----------4444-6644--------------------| x4
A|---------------------6666-666-----------|
E|-----------------------------7-7777-7777|

Chorus:
G|----------------------------------------|
D|----------------------------------------| x4
A|-4444-4422-2222-2222--------------------|
E|---------------------2222-2244-4444-4444|

(Pause) then Outro:
G|-----------------------|
D|-----------------------| x3
A|-2-2-x-x-2-2-x-x-2-x-x-|
E|-----------------------|

| /  slide up
| \  slide down
| h  hammer-on
| p  pull-off
| ~  vibrato
| +  harmonic
| x  Mute note
===============================================================================
Suggest correction
Give kudos to tab author, rate the tab!
1 2 3 4 5
comments
print report bad tab
2 comments total.
0 reply
VintageBassline 1,697 wrote on November 10 2014, 04:07 pm

Lack of accuracy. Many little fills not included. Bridge incorrect. Tuning is Eb standard (half step down) on What You Don't See but I wouldn't be too fussed about that if the tab was right.

0 reply
VintageBassline 1,697 wrote on November 11 2014, 04:33 am

Lack of accuracy. Clearly wrong. When playing along with the track, found the notes to be incorrect, fills missing, and tuning to be wrong (half step down).

guest
You may want to rate the tab now too:
select rating
Wanna post a correction for this tab? Suggest correction