Oops, an error
Loading. Please wait.

Framework Tab

4,375 views 30 this week
1 commentread comment
1 2 3 4 5
excellent!
x 2
add to favorites
launch autoscroll
font size
0
reset
how to read this tab
guitar tuner
Tab Pro tools
  • play this tab
  • loop segment
  • change instrument
  • show fretboard
  • metronome
Autoscroll
slow
fast
+/-
esc
set tempo
stop
Contributor
Difficulty
Tuning
intermediate
D# G# C# F# A# D#
Framework by The Story So Far
Half Step Down
x:Muted

Done by ear and watching covers on youtube
Let me know if anything is off

For the rest of the songs off the album go to
http://www.youtube.com/user/PopPunkGuitarCovers
He has the songs I didn't put up tabbed and videos with them

Intro
Lead
|---------------------------------------------------|
|---------------------------------------------------|
|---------4----------------1---------4--------------|
|-0h2\4\6---6--6-4/2\4/2-----0h2\4\6---6--6-4/2\4/2-|
|---------------------------------------------------|
|---------------------------------------------------|

|-4p0-----4--7-4--4-2p0h2p0-|
|-----5\7-------------------|
|---------------------------|
|---------------------------|
|---------------------------|
|---------------------------|

Rhythm
|------------------------------------|
|------------------------------------|
|-222222222222--44--222222222222-----|
|-2222222222222244--2222222222222222-|
|-0000000000002222--000000000000-----|
|-------------00----------------4444-|


Verse
|---7---4---0---------7---4--7h9p7/4-|----------------------------------------|
|---------------0--------------------|----------------------------------------|
|-6---6---6---6-6/4-6---6------------|-222222222-6666------222222222-6666-----|
|------------------------------------|-222222222-6666-4444-222222222-6666-----|
|------------------------------------|-000000000-4444-4444-000000000-4444-----|
|------------------------------------|----------------2222---------------0000-|
                                       xxxx xxxx xxxx  xxx xxxx xxxx xxxx
Pre-Chorus
|---------------------------------------------------|
|---------------------------------------------------|
|---------4----------------1---------4--------------|
|-0h2\4\6---6--6-4/2\4/2-----0h2\4\6---6--6-4/2\4/2-|
|---------------------------------------------------|
|---------------------------------------------------|

Chorus
Lead
|-000-000-000-000000-000--000-0-0-0--0-0-0--0-0-0--0-----0----|
|-999-777-555-444444-555--999-121212-141414-121212-14p12-9/12-|
|-------------------------------------------------------------|
|-------------------------------------------------------------|
|-------------------------------------------------------------|
|-------------------------------------------------------------|

Rhythm
|-------------------------------------|
|-------------------------------------|
|----------66666666-------------------|
|----------66666666----------44444444-|
|-77777722244444444-77777722244444444-|
|-555444000---------55544400022222222-|

Verse
Lead in background
|---12--12-----------12--12-------|
|-12---------------12----------12-|
|---------------------------------|
|---------14---------------14-----|
|---------------------------------|
|---------------------------------|

Lead picks up with this again          Rhythm is this the whole way through
|---7---4---0---------7---4--7h9p7/4-|----------------------------------------|------|
|---------------0--------------------|----------------------------------------|------|
|-6---6---6---6-6/4-6---6------------|-222222222-6666------222222222-6666-----|------|
|------------------------------------|-222222222-6666-4444-222222222-6666-----|------|
|------------------------------------|-000000000-4444-4444-000000000-4444-----|-7777-|
|------------------------------------|----------------2222---------------0000-|-4444-|
                                       xxxx xxxx  xxx  xxx xxxx xxxx xxxx

Chorus
Lead
|-000-000-000-000000-000--000-0-0-0--0-0-0--0-0-0--0-----0----|
|-999-777-555-444444-555--999-121212-141414-121212-14p12-9/12-|
|-------------------------------------------------------------|
|-------------------------------------------------------------|
|-------------------------------------------------------------|
|-------------------------------------------------------------|

Rhythm
|-------------------------------------|
|-------------------------------------|
|----------66666666-------------------|
|----------66666666----------44444444-|
|-77777722244444444-77777722244444444-|
|-555444000---------55544400022222222-|

Bridge
|--------------------------------------------------------------------|
|-121212121212121212121212121212-------------------------------------|
|-----------------------------------------66666666----------66666666-|
|-141414141414141414141414141414----------66666666----------66666666-|
|--------------------------------77777722244444444-77777722244444444-|
|--------------------------------555444000---------555444000---------|

Lead
|-000000000000-00---0----000000000000-00---0----0000000000000000-|
|-555555554444-00---2----555555554444-00---2----9999999999999999-|
|----------------------------------------------------------------|
|----------------------------------------------------------------|
|----------------------------------------------------------------|
|----------------------------------------------------------------|
Rhythm
|-----------------------------------|
|-----------------------------------|Towards the end you strum
|-66666666------2-----------6666662-|2
|-666666662222222-----------6666662-|2
|-444444442222220---222222224444440-|0
|---------000000----00000000--------|More but in time

Outro
Lead
|---------------------------------------------------|
|---------------------------------------------------|
|---------4----------------1---------4--------------|
|-0h2\4\6---6--6-4/2\4/2-----0h2\4\6---6--6-4/2\4/2-|
|---------------------------------------------------|
|---------------------------------------------------|

|-4p0-----4--7-4--4-2p0h2p0-|
|-----5\7-------------------|
|---------------------------|
|---------------------------|
|---------------------------|
|---------------------------|

Rhythm
|------------------------------------|
|------------------------------------|
|-222222222222--44--222222222222-----|
|-2222222222222244--2222222222222222-|
|-0000000000002222--000000000000-----|
|-------------00----------------4444-|
comments
We did not receive enough feedback on this tab! Please rate:
print report bad tab
1 2 3 4 5
1 comment total.
0 reply
rootbeer356 wrote on July 22 2014, 05:48 pm

Good tab, missing repeat #(example x5) but still 5 stars.

I want to post or [tab]
guest
You may want to rate the tab now too:
select rating
Please do not post tabs as comments. Select "correction" instead!