Oops, an error
Loading. Please wait.

Heavy Gloom bass

version 1
version 1

Whole song

3,904 views 9 this week
3 commentsread comments
1 2 3 4 5
x 3
add to favorites
×
Save as Personal and add changes to this tab that will be seen only by you. Learn more ›
×
You can save this tab as Personal to edit and correct it or add notes. All changes will be seen only by you. Learn more »
launch autoscroll
font size
0
reset
guitar tuner
edit
Autoscroll
slow
fast
+/-
esc
set tempo
stop
-------------------------------------------------------------------------------
                        Heavy Gloom - The Story So Far
-------------------------------------------------------------------------------
Tabbed by: Curtis 
E-mail: c.whitehouse65@gmail.com

Tuning: Eb, Ab, Db, Gb

Intro/Verse 1

Gb|---------------------------------------------------------------------------|
Db|---------------------------------------------------------------------------|
Ab|33333-----------------------repeat all x6----------------------------------|
Eb|-----55555555-00000-33333333-----------------------------------------------|

Pre Chorus 

Gb|---------------------------------------------------------------------------|
Db|---------------------------------------------------------------------------|
Ab|33-33-3h5------------------------------------------------------------------|
Eb|---------55-55-5h7p500-00-5533-33------------------------------------------|

Chorus

Gb|---------------------------------------------------------------------------|
Db|---------------------------------------------------------------------------|
Ab|33-33-3h5------------------------------------------------------------------|
Eb|---------55-55-5h7p500-00-5533-33------------------------------------------|

Verse 2

Gb|---------------------------------------------------------------------------|
Db|---------------------------------------------------------------------------|
Ab|33333-----------------------repeat all x4----------------------------------|
Eb|-----55555555-00000-33333333-----------------------------------------------|

Chorus

Gb|---------------------------------------------------------------------------|
Db|---------------------------------------------------------------------------|
Ab|33-33-3h5----------------------------repeat all x2-------------------------|
Eb|---------55-55-5h7p500-00-5533-33-3h5--------------------------------------|

Bridge

Gb|---------------------------------------------------------------------------|
Db|---------------------------------------------------------------------------|
Ab|-----3-33333-33333----55-3-33333-33333 repeat all x4-----------------------|
Eb|3300--------------33-------------------------------------------------------|

Bridge pt 2

Gb|---------------------------------------------------------------------------|
Db|---------------------------------------------------------------------------|
Ab|-----3-33333-33333--55-3-33333-33333-55555-55555---------------------------|
Eb|3300------------- 33-------------------------------------------------------|

Chorus

Gb|---------------------------------------------------------------------------|
Db|---------------------------------------------------------------------------|
Ab|33-33-3h5-----------------------------repeat all x2------------------------|
Eb|---------55-55-5h7p500-00-5533-33-3h5--------------------------------------|

Outro

Gb|---------------------------------------------------------------------------|
Db|---------------------------------------------------------------------------|
Ab|----3(hold note)-----------------------------------------------------------|
Eb|3300-----------------------------------------------------------------------|


| /  slide up
| \  slide down
| h  hammer-on
| p  pull-off
| ~  vibrato
| +  harmonic
| x  Mute note
===============================================================================

            
            
Suggest correction
Creating personal tab
Creating personal tab
You can edit any tab online and save it as your Personal.

You can edit, replace or remove any tab part or add personal notes – all changes will be seen only by you.

Personal tabs can be accessed anytime from any device, even offline.
Learn more »
Give kudos to tab author, rate the tab!
1 2 3 4 5
comments
print report bad tab
3 comments total.
0 reply
VintageBassline 1,739 May 26, 2015 05:47 AM

Lack of accuracy. The pre chorus and chorus are wrong. The Db at the end of bridge pt.2 is wrong, it's just B continued

0 reply
C1clxne 10 Jun 29, 2015 10:07 AM

all you need to do is steal your guitarists distoriton pedal XD

0 reply
pedrojzone 10 Jan 27, 2016 09:25 AM, edited at 02:31 pm

.

guest
You may want to rate the tab now too:
select rating
Wanna post a correction for this tab? Suggest correction