Oops, an error
Loading. Please wait.

Heavy Gloom bass

version 2
version 2

Whole song

2,389 views 15 this week
no commentswrite comment
1 2 3 4 5
x 4
add to favorites
×
Save as Personal and add changes to this tab that will be seen only by you. Learn more ›
×
You can save this tab as Personal to edit and correct it or add notes. All changes will be seen only by you. Learn more »
launch autoscroll
font size
0
reset
guitar tuner
edit
Autoscroll
slow
fast
+/-
esc
set tempo
stop
Artist: The Story So Far
Album: The Story So Far
Track: Heavy Gloom
Tuning: Half step down (EbAbDbGb)
NB: notes in brackets () optional
Updated 31/05/15 - intro, verses and bridges

Intro
Gb|--------------------------------|--------------------------------|
Db|--------------------------------|--------------------------------| 
Ab|-3-3-3-3-3---3-3----------------|--------------------------------|
Eb|-----------------5-5-5---5-5-5-5|-0-0-0-0-0---0-0-3-3-3---3-3-3-3|

Gb|--------------------------------|--------------------------------|
Db|--------------------------------|--------------------------------| 
Ab|-3-3-3-3-3---3-3----------------|--------------------------------|
Eb|-----------------5-5-5---5-5-5-5|-0-0-0-0-0---0-0-0-0-0---0-0-0-0|

Verse 1
Gb|--------------------------------|--------------------------------|
Db|--------------------------------|--------------------------------| 
Ab|-3-3-3-3-3---3-3----------------|--------------------------------|
Eb|-----------------5-5-5---5-5-5-5|-0-0-0-0-0---0-0-3-3-3---3-3-3-3|

Gb|--------------------------------|--------------------------------|
Db|--------------------------------|--------------------------------|Section 
Ab|-3-3-3-3-3---3-3----------------|--------------------------------|x2
Eb|-----------------5-5-5---5-5-5-5|-0-0-0-0-0---0-0-0-0-0---0-0-0-0|

Pre-chorus
Gb|--------------------------------------------------|
Db|--------------------------------------------------| 
Ab|-3---3------3---3---------------------------------| 
Eb|--------------------------------------------------|

Gb|--------------------------------------------------|
Db|--------------------------------------------------| 
Ab|--------------------------------------------------| 
Eb|--------------------------------------------------|

Chorus
Gb|--------------------------------------------------|
Db|--------------------------------------------------| 
Ab|-3---3--x-x-3---3---------------------------------|x2 
Eb|-----------------(3)--3-3-5---5--x-x-5---5(3)--3-3|

Verse 2
Gb|--------------------------------|--------------------------------|
Db|--------------------------------|--------------------------------| 
Ab|-3-3-3-3-3---3-3----------------|--------------------------------|
Eb|-----------------5-5-5---5-5-5-5|-0-0-0-0-0---0-0-3-3-3---3-3-3-3|

Gb|--------------------------------|--------------------------------|
Db|--------------------------------|--------------------------------|
Ab|-3-3-3-3-3---3-3----------------|--------------------------------|
Eb|-----------------5-5-5---5-5-5-5|-0-0-0-0-0---0-0-0-0-0---0-0-0-0|

Gb|--------------------------------|--------------------------------|
Db|--------------------------------|--------------------------------| 
Ab|-3-3-3-3-3-3-3------------------|--------------------------------|
Eb|---------------5-----5---5-5-5-5|-0-0-0-0-0---0-0-3-3-3---3-3-3-3|

Gb|--------------------------------|--------------------------------|
Db|--------------------------------|--------------------------------|
Ab|-3-3-3-3-3---3-3----------------|--------------------------------|
Eb|-----------------5-5-5---5-5-5-5|-0-0-0-0-0---0-0-0-0-0---0-0-0-0|

Chorus
Gb|--------------------------------------------------|
Db|--------------------------------------------------| 
Ab|-3---3--x-x-3---3---------------------------------|x4 
Eb|-----------------(3)--3-3-5---5--x-x-5---5(3)--3-3|

Bridge part 1
Gb|----------------------------------------------------|
Db|----------------------------------------------------| 
Ab|-----------------3----------------------------------| 
Eb|-3---3---0---0--------------------------------------|

Gb|----------------------------------------------------|
Db|----------------------------------------------------|
Ab|---------5---5---3----------------------------------|
Eb|-3---3----------------------------------------------|

Gb|----------------------------------------------------|
Db|----------------------------------------------------| 
Ab|-----------------3----------------------------------| 
Eb|-3---3---0---0--------------------------------------|

Gb|--------------------------------------------5---5---|
Db|------------------------------5---5-5-------------5-|
Ab|---------5---5---3------3-3-3---------3-3-3---------|
Eb|-3---3----------------------------------------------|

Bridge part 2 – solo
Gb|--------------------------------------------5---5---|
Db|------------------------------5---5-5-------------5-|
Ab|-----------------3------3-3-3---------3-3-3---------|
Eb|-3---3---0---0--------------------------------------|

Gb|--------------------------------------------5---5---|
Db|------------------------------5---5-5-------------5-|
Ab|---------5---5---3------3-3-3---------3-3-3---------|
Eb|-3---3----------------------------------------------|

Gb|--------------------------------------------5---5---|
Db|------------------------------5---5-5-------------5-|
Ab|-----------------3------3-3-3---------3-3-3---------|
Eb|-3---3---0---0--------------------------------------|

Gb|----------------------------------------------------|
Db|------------------------------5---5-5-------5---5-5-|
Ab|---------5---5---3------3-3-3---------3-3-3---------|
Eb|-3---3----------------------------------------------|

Gb|----------------------------------------------------|
Db|-------5---5-5-------5---5-5------------------------| 
Ab|-3-3-3---------3-3-3--------------------------------| 
Eb|-----------------------------8-\-\-\----------------|
   (Get a better slide playing note on E string)
Chorus
Gb|--------------------------------------------------|
Db|--------------------------------------------------| 
Ab|--------------------------------------------------| 
Eb|--------------------------------------------------|

Gb|--------------------------------------------------|
Db|--------------------------------------------------| 
Ab|--------------------------------------------------| 
Eb|-------------------------------------------3---3-3|

Gb|--------------------------------------------------|
Db|--------------------------------------------------| 
Ab|-3---3--x-x-3---3---------------------------------|x4 
Eb|-----------------(3)--3-3-5---5--x-x-5---5(3)--3-3|

Gb|----------------------------------------------------|
Db|----------------------------------------------------| 
Ab|-----------------3----------------------------------| 
Eb|-3---3---0---0--------------------------------------|

            
            
Suggest correction
Creating personal tab
Creating personal tab
You can edit any tab online and save it as your Personal.

You can edit, replace or remove any tab part or add personal notes – all changes will be seen only by you.

Personal tabs can be accessed anytime from any device, even offline.
Learn more »
comments
print report bad tab
guest
You may want to rate the tab now too:
select rating
Wanna post a correction for this tab? Suggest correction