Oops, an error
Loading. Please wait.

High Regard Bass Tab

version 1
version 1

Whole song

Interactive

7,557 views 15 this week
1 commentread comment
1 2 3 4 5
x 8
add to favorites
launch autoscroll
font size
0
reset
guitar tuner
Autoscroll
slow
fast
+/-
esc
set tempo
stop
Help us to improve Ultimate-Guitar.com Take our survey!
×
The Story So Far - High Regard

158 bpm

Standard Tuning

Bass comes in at 17 seconds

G|----|
D|----|
A|----|
E|-3-3|

Intro Chorus

G|------------------------------------------------------------|
D|------------------------------------------------------------|
A|5-5-5-------------------------2-2-2-0-0-0-------------------|   x2
E|------2-2-2-3-3-3-3-3-3-3-3-3-------------3-3-3-3-3-3-3-3-3-|

G|-------------------|
D|-------------------|
A|5~~~~~~~~~~~~~~~~~~|
E|-------------------|

Verse 1

G|------------------------------------------------------------|
D|------------------------------------------------------------|
A|------------0-0-0-0-0-0-2-2-2-------------2-2-2-2-2-2-0-0-0-|  x2
E|3-3-3-3-3-3-------------------3-3-3-3-3-3-------------------|

G|------------------------------------------------------------|
D|------4-4-4-------------------------4-4-4-------------------|
A|------------0-0-0-0-0-0-2-2-2-------------2-2-2-2-2-2-0-0-0-|  x2
E|3-3-3-------------------------3-3-3-------------------------|

Pre Chorus

G|-------------------|
D|-------------------|
A|5~~~~~~~~~~~~~~~~~~|
E|-------------------|

Chorus

G|------------------------------------------------------------|
D|------------------------------------------------------------|
A|5-5-5-------------------------2-2-2-0-0-0-------------------|   x4
E|------2-2-2-3-3-3-3-3-3-3-3-3-------------3-3-3-3-3-3-3-3-3-|

Verse 2

G|------------------------------------------------------------|
D|------------------------------------------------------------|
A|5-5-5-------------------------2-2-2-0-0-0-------------------|   x2
E|------2-2-2-3-3-------3-3-----------------3-3-------3-3-----|


G|------------------------------------------------------------|
D|------------------------------------------------------------|
A|5-5-5-------------------------2-2-2-0-0-0-------------------|   x2
E|------2-2-2-3-3-3-3-3-3-3-3-3-------------3-3-3-3-3-3-3-3-3-|

Pre Chorus

Rest

2:07
G|----|
D|----|
A|----|
E|-3-3|

Chorus

G|------------------------------------------------------------|
D|------------------------------------------------------------|
A|5-5-5-------------------------2-2-2-0-0-0-------------------|   x4
E|------2-2-2-3-3-3-3-3-3-3-3-3-------------3-3-3-3-3-3-3-3-3-|

Pre Bridge

G|---------------------------------|
D|---------------------------------|
A|5-5-5-2-2-2-0-0-0-0-0-0-0-0-0----|
E|---------------------------------|

Bridge

G|--------------------------------------------------------------|
D|--------------------------------------------------------------|
A|5-5-5-2-2-2-0-0-0-0-0-0-0-0-0--------------5-5-5-5-5-5-5-5-5--|
E|--------------------------------3-3-3-3-3-3-------------------|
                                                                                         
                                      x3
G|--------------------------------------------------------------|
D|---------------------------------------------------4h5-5-5-5--|
A|5-5-5-2-2-2-0-0-0-0-0-0-0-0-0--------------5-5-5-5------------|
E|--------------------------------3-3-3-3-3-3-------------------|

G|-----------------|
D|-----------------|
A|-----------------|
E|3---3---3~~~~~~~-|

Pre Chorus

Rest

3:23

G|---|
D|---|
A|---|
E|3--|

Chorus

G|------------------------------------------------------------|
D|------------------------------------------------------------|
A|5-5-5-------------------------2-2-2-0-0-0-------------------|   x4
E|------2-2-2-3-3-3-3-3-3-3-3-3-------------3-3-3-3-3-3-3-3-3-|
Suggest correction
comments
print report bad tab
1 comment total.
0 reply
Codyis0nline 10 Jan 06, 2014 05:22 PM

Great tab man! :D

guest
You may want to rate the tab now too:
select rating
Wanna post a correction for this tab? Suggest correction