Oops, an error
Loading. Please wait.

How You Are tab

1,525 views 24 this week
2 commentsread comments
1 2 3 4 5
2 more votes to show rating
add to favorites
×
Save as Personal and add changes to this tab that will be seen only by you. Learn more ›
×
You can save this tab as Personal to edit and correct it or add notes. All changes will be seen only by you. Learn more »
launch autoscroll
font size
0
reset
how to read this tab
guitar tuner
edit
Autoscroll
slow
fast
+/-
esc
set tempo
stop
-------------------------------------------------------------------------------
                             How You Are - The Story So Far
-------------------------------------------------------------------------------
Tabbed by: 14caiom
E-mail: 14caiom@gmail.com


Tuning:Half Step Down

///////////Lead/Rhythm/////////



:::Verse: (0:20) LEAD AND RYTHYM:::::::


{{keep in mind I'm trying to line chords up with words not as much rhythm}}

                    "Gone now I keep my distance, but still show persistence,"

e|---------------------------------------------------------------------------|
B|---------------------------------------------------------------------------|
G|--------------------------------------9---6--------------------9-----6-----|
D|----9-9-9-9--9-9-9--7-------7--7--7---9---6----------7--7-7----9-----6-----|
A|----9-9-9-9--9-9-9--7-------7--7--7---7---4----------7--7-7----7-----4-----|
E|----7-7-7-7--7-7-7--5-------5--5--5------------------5--5-5----------------|
pm                            .  .  .                     . . 


  "In Trying to find out how you are, Its really testing my patience, watching you "

e|-------------------------------------------------------------------------------|
B|-------------------------------------------------------------------------------|
G|----------------------------------------------------------9----6---------------|
D|--7--7--7--7---7--9----9---------7--------------7--7--7---9----6----7----7---7-|
A|--7--7--7--7---7--9----9-(x4)----7--------------7--7--7---7----4----7----7---7-|
E|--5--5--5--5---5--7----7---------5--------------5--5--5-------------5----5---5-|
pm  .  .  .  .                                    .  .  .             . 


" Waste this, life that you have of yours in a bar.....and i get the feeling

e|---------------------------------------------------------------------------|
B|---------------------------------------------------------------------------|
G|-9---6-------------------------------------------------------------9---6---|
D|-9---6------7----7----7----9-(x8)------------11----------7--7--7---9---6---|
A|-7---4------7----7----7----9-----------------11-(x4)-----7--7--7---7---4---|
E|------------5----5----5----7-----------------9-----------5--5--5-----------|
pm            .    .    .                                  .  .  .

"That your gonna leave him, cause you just can't seem to get off....your so appealing

e|-------------------------------------------------------------------------------------|
B|-------------------------------------------------------------------------------------|
G|----------------------------------------------------------------------------9---6----|
D|-7---7---7--7---9---9-----7----7----7----9-----11---9--7---11------7--7-----9---6----|
A|-7---7---7--7---9---9-----7----7----7----9-----11---9--7---11-(x4)-7--7-----7---4----|
E|-5---5---5--5---7---7-----5----5----5----7-----9----7--5---9-------5--5--------------|
pm     .   .  .             .    .    .                              .  . 


  "You can get anyone that you want somehow

e|---------------------------------------------------------------------------|
B|---------------------------------------------------------------------------|
G|---------------------------------------------------------------------------|
D|--7--7--7----9-9--7-7---7----9---9-----9-9-9-9-----------------------------|
A|--7--7--7----9-9--7-7---7----9---9-----9-9-9-9-----------------------------|
E|--5--5--5----7-7--5-5---5----7---7-----7-7-7-7-----------------------------|
pm     .  .         . .   .    




::::Chorus:::: (0:46)

/////LEAD(TIMING TRICKY LISTEN TO SONG)

  "Patience is useless when i'm sober and your wasted,

e|-----------------4---------------------------4-----------------------------|
B|-222-0-22222-02-5-5-2-0--0h2-22-0-22222-0-2-5-5-2-0------------------------|
G|---------------------------------------------------------------------------|
D|---------------------------------------------------------------------------|
A|---------------------------------------------------------------------------|
E|---------------------------------------------------------------------------|

//Rhythm//// (each chord x4) (It is is same rhythm, sorry i'm just trying to line up with words)
e|---------------------------------------------------------------------------|
B|---------------------------------------------------------------------------|
G|------9----------------------9---------------------------------------------|
D|-7----9---11-11---------7----9------11----11-------------------------------|
A|-7----7---11-11---------7----7------11----11-------------------------------|
E|-5--------9--9----------5-----------9-----9--------------------------------|

e|---------------------------------------------------------------------------|
B|---------------------------------------------------------------------------|
G|---------------------------------------------------------------------------|
D|---------------------------------------------------------------------------|
A|---------------------------------------------------------------------------|
E|---------------------------------------------------------------------------|

(Verse 0:57)

(Chorus 1:22)



Chorus 2 (1:34)    (Again not perfectly lined up)

LEAD///
 " And i Count the times that i'm driving home, and i'm talking to myself like i'm not alone."

e|-----------------------------------------------------------------------------------|
B|--2-2-2-2-2-2-2-2-----5----2----0----22-----0--2-2-2-2---9-9-9-9---5-----0-2----0--|
G|-----------------------------------------22---------------------------22-----22----|
D|-----------------------------------------------------------------------------------|
A|-----------------------------------------------------------------------------------|
E|-----------------------------------------------------------------------------------|

Rythym///// SAME Rhythm as Last chorus

e|---------------------------------------------------------------------------------------|
B|---------------------------------------------------------------------------------------|
G|------------9-9-9-9-------------------------------------9-9-9-9------------------------|
D|---7-7-7-7--9-9-9-9--x--11-x-11-x-11-x---------7-7-7-7--9-9-9-9--11-x--11-x--11-x-11---|
A|---7-7-7-7--7-7-7-7--x--11-x-11-x-11-x---------7-7-7-7--7-7-7-7--11-x--11-x--11-x-11---|
E|---5-5-5-5-----------x--9--x-9--x-9--x---------5-5-5-5-----------9--x--9--x--9--x-9----|



Bridge: (1:46)


Lead/////(Can be same as chorus 2 its same exact notes fyi)

e|---------------------------------------------------------------------------|
B|-------------------------------------------7--7--7--7----------------------|
G|--6-6-6-6-6-6-6-6---9-6---66-------6-6-6-6-------------9--------6----------|
D|------------------------9-----77-9-------------------------77-9---77--9----|
A|---------------------------------------------------------------------------|
E|---------------------------------------------------------------------------|
pm ...........................................................................

Rhythm/////

e|---------------------------------------------------------------------------|
B|---------------------------------------------------------------------------|
G|---------------------------------------------------------------------------|
D|---------------------------------------------------------------------------|  (not exact number of 12's)
A|--9-9-9---12-12-12-12-12-12-12-12-12-12-12-12-12-12-12-12-12-12-12-12-12-12|
E|---------------------------------------------------------------------------|
pm............................................................................



e|---------------------------------------------------------------------------|
B|---------------------------------------------------------------------------|
G|---------------------------------------------------------------------------|
D|---------------------------------------------------------------------------|
A|-9-9-9---12-12-12-12-12-12-12-12-12-12-12-9-9-9-9-9-7-7-7-7-7-7-7-7-7-7-7--|
E|---------------------------------------------------------------------------|
pm............................................................................




(Chorus)and (Chorus 2) (2:18)




please rate and email if somethings wrong

************************************

| /   slide up
| h   hammer-on
| p   pull-off
| x   Mute note

************************************

            
            
Suggest correction
Creating personal tab
Creating personal tab
You can edit any tab online and save it as your Personal.

You can edit, replace or remove any tab part or add personal notes – all changes will be seen only by you.

Personal tabs can be accessed anytime from any device, even offline.
Learn more »
Give kudos to tab author, rate the tab!
1 2 3 4 5
comments
print report bad tab
2 comments total.
0 reply
jacob_moss 122 Jul 09, 2017 03:46 AM

Worth learning, feel like this tab is missing some parts but I haven't tested it out entirely. Good tab for now.

guest
You may want to rate the tab now too:
select rating
Wanna post a correction for this tab? Suggest correction