Oops, an error
Loading. Please wait.

Loro Tab

version 1
version 1

Whole song

4,248 views 21 this week
no commentswrite comment
1 2 3 4 5
x 4
add to favorites
×
Save as Personal and add changes to this tab that will be seen only by you. Learn more ›
×
You can save this tab as Personal to edit and correct it or add notes. All changes will be seen only by you. Learn more »
save as personal
new!
launch autoscroll
font size
0
reset
how to read this tab
guitar tuner
Autoscroll
slow
fast
+/-
esc
set tempo
stop
Difficulty
Tuning
novice
E A D G B E
1st guitar part(played throughout whole song)

E|----------------------------------------------------------------|
B|3---3---3---3---------------------------------------------------|
G|----------------5---5---5---5---3---3---3---3---5---5---5---5---|
D|--3---3---3---3---3---3---3---3---3---3---3---3---3---3---3---3-|
A|----------------------------------------------------------------|
E|----------------------------------------------------------------|

E|----------------------------------------------------------------|
B|----------------------------------------------------------------|
G|2---2---2---2---2---2---2---2---2---2---2---2---2---2---2---2---|
D|--3---3---3---3---3---3---3---3---3---3---3---3---3---3---3---3-|
A|----------------------------------------------------------------|
E|----------------------------------------------------------------|

======================================================================

2nd Guitar part(comes in after 1 measures, you can hear it by sound, itll be played off 
and on throughout song, mostly in "do do do" vocal area.)

E|----------------------------------------------------------------|
B|--4---4---4---4---4---4---4---4---4---4---4---4---4---4---4---4-|
G|5---5---5---5---5---5---5---5---5---5---5---5---5---5---5---5---|
D|----------------------------------------------------------------|
A|----------------------------------------------------------------|
E|----------------------------------------------------------------|

E|3---3---3---3~4-----------------3---3---3---3~4-----------------|
B|----------------4---4---4---4---------------------4---4---4---4-|
G|----------------------------------------------------------------|
D|----------------------------------------------------------------|
A|----------------------------------------------------------------|
E|----------------------------------------------------------------|
=========================================================================

"~" stands for slide,but it can also be hammered on.

Enjoy!
Suggest correction
comments
print report bad tab
guest
Wanna post a correction for this tab? Suggest correction