Oops, an error
Loading. Please wait.

Mock tab

version 2
version 2

Whole song

739 views 12 this week
no commentswrite comment
1 2 3 4 5
1 last vote to show rating
add to favorites
×
Save as Personal and add changes to this tab that will be seen only by you. Learn more ›
×
You can save this tab as Personal to edit and correct it or add notes. All changes will be seen only by you. Learn more »
launch autoscroll
font size
0
reset
how to read this tab
guitar tuner
edit
Autoscroll
slow
fast
+/-
esc
set tempo
stop
-------------------------------------------------------------------------------
                             Mock - The Story So Far
-------------------------------------------------------------------------------
Tabbed by: 14caiom
E-mail:14caiom@gmail.com

Lead and Rythym

Tuning:Half Step Down

Lead:

Intro/Chorus:

e|-----------|-----------------------------------------------------------------|
B|---8---7-7-|---------10-7-7-7-7-----10-7-7-----------10-7-7-7-7---8-8---7-7--|
G|-----7-----|-9-9-7-9------------7-9--------9-9-9-7-9------------------7------|
D|-----------|-----------------------------------------------------------------|
A|-----------|-----------------------------------------------------------------|
E|-----------|-----------------------------------------------------------------|


Verse:

E|---------------------------------------------------------------------------|
B|------------------7-----7---8-7--------------------------------8-7---------|
G|--7-7-7-7-7-7-7-7---7-7---7-----9----7-7-7-7-7-7-7-7-9-7-7-9-7-----9-------|
D|---------------------------------------------------------------------------|
A|---------------------------------------------------------------------------|
E|---------------------------------------------------------------------------|
pm . . . . . . . . . . . . . . . . . . . . . . . . . . . . . . . . . . .

E|---------------------------------------------------------------------------|
B|------------------7-----7---8-7--------------------------------------------|
G|--7-7-7-7-7-7-7-7---7-7---7-----9----7-7-7-7-7-7-7-7--9-9-9-7-7-7-9-9------|
D|---------------------------------------------------------------------------|
A|---------------------------------------------------------------------------|
E|---------------------------------------------------------------------------|
pm  . . . . . . . . . . . . . . . . .  . . . . . . . . 


E|---------------------------------------------------------------------------|
B|------------------7-----7---8-7-----------------------------------10-------|
G|--7-7-7-7-7-7-7-7---7-7---7-----9----7-7-7-7-7-7-7-7-9-7-7-9-7-9-----------|
D|---------------------------------------------------------------------------|
A|---------------------------------------------------------------------------|
E|---------------------------------------------------------------------------|


E|----------------------------------------------------------------------------|
B|------------------7-----7---8-7------------10*------------------------------|
G|--7-7-7-7-7-7-7-7---7-7---7-----9----7-7-7-------2---4----------------------|
D|-------------------------------------------------2---4-----2----------------|
A|-------------------------------------------------0---2-----2----------------|
E|-----------------------------------------------------------0----------------|


Chorus: 

     Start Here ><    (repeat as necessary) 
       
             "Okay,   to   still    like     all    the     things i play"     End on:

E|---------------|------------------------------------------------------------|------
B|---8---7-7-----|----10-7-7-7-7-----10-7-7-----------10-7-7-7-7---8-8---7-7--|------
G|-----7-----9-9-|7-9------------7-9--------9-9-9-7-9------------------7------|------
D|---------------|------------------------------------------------------------|--9---
A|---------------|------------------------------------------------------------|------
E|---------------|------------------------------------------------------------|------


Verse(0:59)

Verse B(1:20)


E|----------------------------------------------------------------|
B|----------------------------------------------------------------|
G|--0-0-0-0-0-0--0----0-0-0-0-0-0-2-2-2-2-2-2--2------------------|(repeat)
D|-------------------------------------------------2-2-2-2-2-2----|
A|----------------------------------------------------------------|
E|----------------------------------------------------------------|
pm . . . . . . . .    . . . . . . . . . . . .  .   . . . . . .


Chorus(1:31) start with two 8's


Bridge:(1:52) second part very faint 

E|---------------------------------------------------------------------------|
B|-------------------------------7*------------------------------------------|
G|----7*---------9---7---7-------------7-------------------------------------|
D|----------------------------------------------9*---------------------------|
A|---------------------------------------------------------------------------|
E|---------------------------------------------------------------------------|

(2:04) 
e|---------------------------------------------------------------------------|
B|---10-------10---10--------------------------------------------------------|
G|------7-7-7----7----7-7-7-7-7-7-9------------------------------------------|
D|---------------------------------------------------------------------------|(repeat a bunch)
A|---------------------------------------------------------------------------|
E|---------------------------------------------------------------------------|

Chorus(2:19) same exact as intro

End on:

          OR
E|----------|--------------|
B|----------|--------------|
G|----7*----|--------------|
D|----------|--------------|
A|----------|----5*--------|
E|----------|--------------|



////Rhythm/////////////////////////


Intro/Chorus:
   
Stop strings    ><         and               ><   after you play those chords

E|---------------------------------------------------------------------------|
B|---------------------------------------------------------------------------|
G|-------------------------------6-6-6-6-6-6-6-------------------------------|
D|--4-4-4-4-4-4--4---4-4-4-4-4-4-7-7-7-7-7-7-7-----5-5---4-4-----------------|
A|--5-5-5-5-5-5--5---5-5-5-5-5-5-5-5-5-5-5-5-5---------5---------------------|
E|--3-3-3-3-3-3--3---3-3-3-3-3-3---------------------------------------------|

Version 2/the wrong way/ the way i used to play it
E|---------------------------------------------------------------------------|
B|---------------------------------------------------------------------------|
G|-------------------------------6-6-6-6-6-6-6----6-6-6-6-6-6----------------|
D|--4-4-4-4-4-4--4---4-4-4-4-4-4-7-7-7-7-7-7-7----7-7-7-7-7-7----------------|
A|--5-5-5-5-5-5--5---5-5-5-5-5-5-5-5-5-5-5-5-5----5-5-5-5-5-5----------------|
E|--3-3-3-3-3-3--3---3-3-3-3-3-3---------------------------------------------|


Verse:

E|---------------------------------------------------------------------------|
B|---------------------------------------------------------------------------|
G|---------------------------------------------------------------------------|
D|---------------------------------------------------------------------------|
A|---5-5-5-5-5-5-5-5--2-2-2-2-2-2-2-2--5-5-5-5-5-5-5-5--2-2-2-2--4-4-4-4-----|
E|---3-3-3-3-3-3-3-3--0-0-0-0-0-0-0-0--3-3-3-3-3-3-3-3--0-0-0-0--2-2-2-2-----|
pm  . . . . . . . .   . . . . . . . .  . . . . . . . .  . . . .  . . . .

E|----------------------------------------------------------------------------|
B|----------------------------------------------------------------------------|
G|----------------------------------------------------------------------------|
D|--------------------------------------------------------2---4---------------|
A|---5-5-5-5-5-5-5-5--2-2-2-2-2-2-2-2--5-5-5-5-5-5-5-5----0---2---2-----------|
E|---3-3-3-3-3-3-3-3--0-0-0-0-0-0-0-0--3-3-3-3-3-3-3-3------------0-----------|
pm   . . . . . . . .  . . . . . . . .  . . . . . . . .


E|---------------------------------------------------------------------------|
B|---------------------------------------------------------------------------|
G|---------------------------------------------------------------------------|
D|---------------------------------------------------------------------------|
A|---5-5-5-5-5-5-5-5--2-2-2-2-2-2-2----5-5-5-5-5-5-5-5--2-2-2-2-2-2-2--------|
E|---3-3-3-3-3-3-3-3--0-0-0-0-0-0-0----3-3-3-3-3-3-3-3--0-0-0-0-0-0-0--------|
pm                      .   .                             .   .
                      (x7 not 8)for 0's

E|---------------------------------------------------------------------------|
B|---------------------------------------------------------------------------|
G|---------------------------------------------------------------------------|
D|-------------------------------------------------------2---4---------------|
A|---5-5-5-5-5-5-5-5--2-2-2-2-2-2-2----5-5-5-5-5-5-5-5---0---2---2------------|
E|---3-3-3-3-3-3-3-3--0-0-0-0-0-0-0----3-3-3-3-3-3-3-3-----------0------------|
pm                      .   .                             



Chorus:

Don't play          >           <    on first play through
E|---------------------------------------------------------------------------|
B|---------------------------------------------------------------------------|
G|-------------------------------6-6-6-6-6-6-6-------------------------------|
D|--4-4-4-4-4-4--4---4-4-4-4-4-4-7-7-7-7-7-7-7-----5-5---4-4-----------------|(repeat)
A|--5-5-5-5-5-5--5---5-5-5-5-5-5-5-5-5-5-5-5-5---------5---------------------|
E|--3-3-3-3-3-3--3---3-3-3-3-3-3---------------------------------------------|

Verse(0:59)

Verse B(1:20) same as chorus except muted

Chorus(1:32) Full thing


Bridge:(1:54)

E|---------------------------------------------------------------------------|
B|---------------------------------------------------------------------------|
G|---------------------------------------------------------------------------|
D|-----0h2p0-4p0-----0h2p0-4p0----0h2p0-4p0-----4h5p4-2p0--------------------|(repeat)
A|---2-------------2------------2-------------2------------------------------|
E|---------------------------------------------------------------------------|

Last time play this instead of this(above)  >             <

E|---------------------------------------------------------------------------|
B|---------------------------------------------------------------------------|
G|---2---4-------------------------------------------------------------------|
D|---2---4---2---------------------------------------------------------------|
A|---0---2---2---------------------------------------------------------------|
E|-----------0---------------------------------------------------------------|


Chorus(2:15) full thing
Outro is chorus but don't stop those chords let them ring (2:36)



************************************
*     hold note
>     start here
<     end here
h     hammer on
p     pull off
| /   slide up
| \   slide down
| h   hammer-on
| p   pull-off


************************************
Suggest correction
Creating personal tab
Creating personal tab
You can edit any tab online and save it as your Personal.

You can edit, replace or remove any tab part or add personal notes – all changes will be seen only by you.

Personal tabs can be accessed anytime from any device, even offline.
Learn more »
Give kudos to tab author, rate the tab!
1 2 3 4 5
comments
print report bad tab
guest
You may want to rate the tab now too:
select rating
Wanna post a correction for this tab? Suggest correction