Oops, an error
Loading. Please wait.

Mt Diablo bass

version 1
version 1

Whole song

Interactive

1,207 views 3 this week
no commentswrite comment
1 2 3 4 5
3 more votes to show rating
add to favorites
×
Save as Personal and add changes to this tab that will be seen only by you. Learn more ›
×
You can save this tab as Personal to edit and correct it or add notes. All changes will be seen only by you. Learn more »
launch autoscroll
font size
0
reset
guitar tuner
edit
Autoscroll
slow
fast
+/-
esc
set tempo
stop
Author
Difficulty
-------------------------------------------------------------------------------
                             The Story So far - Mt Diablo
-------------------------------------------------------------------------------
Tabbed by: iliketurtles123
E-mail: 

I had some fun playing this song and I wanted to share, feel free to improve.
Tuning: standard

verse: (bass comes in at 0:40) x2
G|---------------------------------------------------------|
D|-------------------2h4-2h4---------------------2h4-2h4p2-|
A|-00000-04444-42222-2--------2-0000-04444-42222-2---------|
E|---------------------------------------------------------|

pre-chorus:
G|---------------------------------------------|
D|---------------------------------------------|
A|---------------------------------44----------|
E|-4445-555555555-00000000-55555555---22-77-5--|x2

G|---------------|
D|---------------|
A|---------------|
E|--0--------245-|

chorus: x2
G|---------------------------------------------------------------------------|
D|---------------------------------------------------------------------------|
A|----------------------------44---------------------------------------------|
E|-02455555-02455555-02455555----22-77-5-------------------------------------|

verse 2: same as the first verse

prechorus 2:
G|---------------------------------------------------------------------------|
D|---------------------------------------------------------------------------|
A|---------------------------------------------------------------------------|
E|-5550-0007-5550-00075--045-------------------------------------------------|

chorus 2: also the same

bridge: first Kelen plays the normal verse but then he adds some fifths
G|---------------------------------------------------------------------------|
D|-------------------2h4-2h4-------------------------66676-------------------|
A|-00000-04444-42222-2-------2-00000--04444--42222-2-------------------------|
E|---------------------------------------------------------------------------|

G|---------------------------------------|
D|--2---6---4-676------------------------|
A|-0--04--42------0000-04444-42222-20----|
E|---------------------------------------|

Chorus again

verse and end on an open E



| /  slide up
| \  slide down
| h  hammer-on
| p  pull-off
| ~  vibrato
| +  harmonic
| x  Mute note
===============================================================================

            
            
Suggest correction
Creating personal tab
Creating personal tab
You can edit any tab online and save it as your Personal.

You can edit, replace or remove any tab part or add personal notes – all changes will be seen only by you.

Personal tabs can be accessed anytime from any device, even offline.
Learn more »
Give kudos to tab author, rate the tab!
1 2 3 4 5
comments
print report bad tab
guest
You may want to rate the tab now too:
select rating
Wanna post a correction for this tab? Suggest correction