Oops, an error
Loading. Please wait.

Nerve tab

version 2
version 2

Whole song

5,836 views 87 this week
no commentswrite comment
1 2 3 4 5
x 4
add to favorites
×
Save as Personal and add changes to this tab that will be seen only by you. Learn more ›
×
You can save this tab as Personal to edit and correct it or add notes. All changes will be seen only by you. Learn more »
launch autoscroll
font size
0
reset
how to read this tab
guitar tuner
edit
Autoscroll
slow
fast
+/-
esc
set tempo
stop
-------------------------------------------------------------------------------
                             Nerve - The Story So Far 
-------------------------------------------------------------------------------
Tabbed by: 14caiom
E-mail: 14caiom@gmail.com

Tuning:HALF STEP DOWN

Lead AND Rhythm 

your welcome.

/LEAD/

Intro: NOT SAME AS CHORUS


E|----------12-------12--12--9---9---9-----------9-------9---9---------------------------------------0--0--|
B|------10------10---10--10--10--10--10------10-----10---10--10--12--12--10--9--10--10--10--9--9--9--7--9--|
G|--11---------------11--11--11--11--11---9--------------9---9---9---9---9---9---9---9---9--9--9--9--------|
D|---------------------------------------------------------------------------------------------------------|
A|---------------------------------------------------------------------------------------------------------|
E|---------------------------------------------------------------------------------------------------------|



Verse: (0:20)

"Hard shove feel the heavy weight,its the same love that i push away."

E|-----------------------------------------------------------------------------------------|
B|-----------------------------------------------------------------------------------------|
G|--9---6-----6--6--6--6--6---6---6-6-----7--6----6--6--6--6--6---6---6--6-----------------|
D|--7---7-----7--7--7--7--7---7---7-7-----7--7----7--7--7--7--7---7---7--7-----------------|
A|--5---5-----5--5--5--5--5---5---5-5-----5--5----5--5--5--5--5---5---5--5-----------------|
E|-----------------------------------------------------------------------------------------|
pm            .  .  .  .  .       . .             .  .  .  .  .       .  .


"It'd be the same thing i always debate, why you left me here for another"

E|--------------------------------------|---------------------------------------------------|
B|--------------------------------------|---------------------------------------------------|
G|--9---6-----6--6--6--6--6---6---6-6---|----------------------6----------------------------|
D|--7---7-----7--7--7--7--7---7---7-7---|---7---9--9--9--9--9-----9--7----------------------|
A|--5---5-----5--5--5--5--5---5---5-5---|---------------------------------------------------|
E|--------------------------------------|---------------------------------------------------|
pm            .  .  .  .  .       . .             (VERSE B)



Intro: (0:37) x2 

Chorus:(0:52)  'Does not start when drums start, but slightly after'

 "Do                you     set   your    pace    ill  keep     mine     too     each      time      i "

E|----------12-------12--12--9---9---9-----------9-------9---9---------------------------------------0--0--|
B|------10------10---10--10--10--10--10------10-----10---10--10--12--12--10--9--10--10--10--9--9--9--7--9--|
G|--11---------------11--11--11--11--11---9--------------9---9---9---9---9---9---9---9---9--9--9--9--------|
D|---------------------------------------------------------------------------------------------------------|
A|---------------------------------------------------------------------------------------------------------|
E|---------------------------------------------------------------------------------------------------------|


"Chase            i     feel     dark blue              confuse   your      face    for        someone  " 

E|----------12-------12--12--9---9---9-----------9-------9---9--------------------12-----12-12-9--9--9-----|
B|------10------10---10--10--10--10--10------10-----10---10--10--12--12--10-----10---10--10-10-10-10-10----|
G|--11---------------11--11--11--11--11---9--------------9---9---9---9---9---11----------11-11-11-11-11----|
D|---------------------------------------------------------------------------------------------------------|
A|---------------------------------------------------------------------------------------------------------|
E|---------------------------------------------------------------------------------------------------------|
                                         -/Difference from intro starts here ><
   "New         I guess i..

E|-------9-------------0--0--------------------------------------------------|
B|----10--10--9--9--9--7--9--------------------------------------------------|
G|--9---------9--9--9--------------------------------------------------------|
D|---------------------------------------------------------------------------|
A|---------------------------------------------------------------------------|
E|---------------------------------------------------------------------------|


Verse x2
Intro x2
Chorus

Bridge:(1:56)        Don't let chords ring out

E|--------------------------|-------------------------------------------------------|
B|--------------------------|-------------------------------------------------------|
G|--9-9-9-9---9-9-9-9---9-9-|--6-6-6-6----------6-6-6-6------6---9-9-9-9---11--9----|
D|--7-7-7-7---7-7-7-7---7-7-|--7-7-7-7---7--9---7-7-7-7---9------7-7-7-7------------|
A|--5-5-5-5---5-5-5-5---5-5-|--5-5-5-5----------5-5-5-5----------5-5-5-5------------|
E|--------------------------|-------------------------------------------------------|

E|---------------------------------------------------------------------------|
B|---------------------------------------------------------------------------|
G|--6-6-6-6------6---6-6-6-6----------6-6-6-6--------------------------------|
D|--7-7-7-7---9------7-7-7-7---7--9---7-7-7-7---9--11------------------------|
A|--5-5-5-5----------5-5-5-5----------5-5-5-5--------------------------------|
E|---------------------------------------------------------------------------|

(Repeat at line) 

Second time around there is a sound that is the D string being strummed, which is only in studio version

Chorus(look back) Start at the word "pace"
intro x 2


/Rhythm/////

It's okay to add some strums to the intro and chorus


Intro (0:06)  

e|---------------------------------------------------------------------------------------|
B|---------------------------------------------------------------------------------------|
G|--7---7-7---7-7-7---7-7----------------------------------------------------------------|
D|--7---7-7---7-7-7---7-7----7----7-7---7-7-7---7-7----9----9-9---9-9-9---9-9------------|
A|--5---5-5---5-5-5---5-5----7----7-7---7-7-7---7-7----9----9-9---9-9-9---9-9------------|
E|---------------------------5----5-5---5-5-5---5-5----7----7-7---7-7-7---7-7------------|
    D   U D   U D D   D U    D    U D   U D D   D U    D    U D   U D D   D U


e|------------------------------------------------------------------------------------------|
B|------------------------------------------------------------------------------------------|
G|--7---7-7---7-7-7---7-7-------------------------------------------------------------------|
D|--7---7-7---7-7-7---7-7----7----7-7---7-7-7---7-7----4----4-4---4-4-4---4-4------(2)------|
A|--5---5-5---5-5-5---5-5----7----7-7---7-7-7---7-7----4----4-4---4-4-4---4-4------(0)------|
E|---------------------------5----5-5---5-5-5---5-5----2----2-2---2-2-2---2-2------(0)------|
    D   U D   U D D   D U    D    U D   U D D   D U    D    U D   U D D   D U





Verse:(0:20) Same exact as lead except for part B

"Hard shove feel the heavy weight,its the same love that i push away."

E|-----------------------------------------------------------------------------------------|
B|-----------------------------------------------------------------------------------------|
G|--9---6-----6--6--6--6--6---6---6-6-----7--6----6--6--6--6--6---6---6--6-----------------|
D|--7---7-----7--7--7--7--7---7---7-7-----7--7----7--7--7--7--7---7---7--7-----------------|
A|--5---5-----5--5--5--5--5---5---5-5-----5--5----5--5--5--5--5---5---5--5-----------------|
E|-----------------------------------------------------------------------------------------|
pm            .  .  .  .  .       . .             .  .  .  .  .       .  .


"It'd be the same thing i always debate, why you left me here for another"

E|--------------------------------------|---------------------------------------------------|
B|--------------------------------------|---------------------------------------------------|
G|--9---6-----6--6--6--6--6---6---6-6---|-------------------------4-4-----------------------|
D|--7---7-----7--7--7--7--7---7---7-7---|-------4-4-4-4-4-4-4-4---4-4-----------------------|
A|--5---5-----5--5--5--5--5---5---5-5---|-------4-4-4-4-4-4-4-4---2-2-----------------------|
E|--------------------------------------|-------2-2-2-2-2-2-2-2-----------------------------|
pm            .  .  .  .  .       . .             (VERSE B)



Intro (0:37)- Same except muted x2


Chorus (0:50)

"head,  theres  not  much  i   can     do,    you    set       your ... 
chase,   i    feel        dark      blue,      confuse       your  

e|---------------------------------------------------------------------------------------|
B|---------------------------------------------------------------------------------------|
G|--7---7-7---7-7-7---7-7----------------------------------------------------------------|
D|--7---7-7---7-7-7---7-7----7--7-7----9---9-9---9-9-9---9-9----7--7-7-------------------|
A|--5---5-5---5-5-5---5-5----7--7-7----9---9-9---9-9-9---9-9----7--7-7-------------------|
E|---------------------------5--5-5----7---7-7---7-7-7---7-7----5--5-5-------------------|
    D   U D   U D D   D U    D  D U    D   U D   U D D   D U    D  D U   



  ..pace,    i'll   keep       mine    too,    each    time     i..
   face    for       some - one       new.."
e|---------------------------------------------------------------------------------------|
B|---------------------------------------------------------------------------------------|
G|--7---7-7---7-7-7---7-7----------------------------------------------------------------|
D|--7---7-7---7-7-7---7-7----7--7-7----4---4-4---4-4-4---4-4----7--7-7-------------------| (x2)
A|--5---5-5---5-5-5---5-5----7--7-7----4---4-4---4-4-4---4-4----7--7-7-------------------|
E|---------------------------5--5-5----2---2-2---2-2-2---2-2----5--5-5-------------------|
    D   U D   U D D   D U    D  D U    D   U D   U D D   D U    D  D U   



Verse (1:08)x2
Intro Muted (1:26)x2
Chorus (1:40)x2

Bridge:(1:57) x2


E|----------------------------------------------------------------------------------------------|
B|----------------------------------------------------------------------------------------------|
G|--------------------6-6-6-6---6-6-6-6-6-6-6-6-------------------------------------------------|
D|---7-7-7-7---7------7-7-7-7---7-7-7-7-7-7-7-7-----4-4-4-4---4------7-7-7-7---7-7-7-7-7-7-7-7--|
A|---7-7-7-7---7------5-5-5-5---5-5-5-5-5-5-5-5-----4-4-4-4---4------7-7-7-7---7-7-7-7-7-7-7-7--|
E|---5-5-5-5---5------------------------------------2-2-2-2---2------5-5-5-5---5-5-5-5-5-5-5-5--|
pm             .(x8)            . .   . .   . .               .(x8)            . .   . .   . .


e|------------------------------------------------------------------------------------------------|
B|------------------------------------------------------------------------------------------------|
G|--4-4-4-4---4------7-7-7-7---7-7-7-7-7-7-7-7----------------------------------------------------|
D|--4-4-4-4---4------7-7-7-7---7-7-7-7-7-7-7-7-----4-4-4-4---4--------7-7-7-7---7-7-7-7-7-7-7-7---|
A|--2-2-2-2---2------5-5-5-5---5-5-5-5-5-5-5-5-----4-4-4-4---4--------7-7-7-7---7-7-7-7-7-7-7-7---|
E|-------------------------------------------------2-2-2-2---2--------5-5-5-5---5-5-5-5-5-5-5-5---|
pm            .(x8)            . .   . .   . .               .(x8)              . .   . .   . .


Intro/chorus x 4



************************************
>     Accent
| x   Mute note

************************************

            
            
Suggest correction
Creating personal tab
Creating personal tab
You can edit any tab online and save it as your Personal.

You can edit, replace or remove any tab part or add personal notes – all changes will be seen only by you.

Personal tabs can be accessed anytime from any device, even offline.
Learn more »
comments
print report bad tab
guest
You may want to rate the tab now too:
select rating
Wanna post a correction for this tab? Suggest correction