Oops, an error
Loading. Please wait.

Out Of It tab

1,483 views 645 this week
5 commentsread comments
1 2 3 4 5
x 5
add to favorites
×
Save as Personal and add changes to this tab that will be seen only by you. Learn more ›
×
You can save this tab as Personal to edit and correct it or add notes. All changes will be seen only by you. Learn more »
launch autoscroll
font size
0
reset
how to read this tab
guitar tuner
edit
Autoscroll
slow
fast
+/-
esc
set tempo
stop
Check out my cover: https://youtu.be/JMo7HH5_DXI

[Intro & Verse 1] play 6 times
D|--0--0--0---0---0---0--------0-----0---0---------0-------------------------|
A|--5--5--5---7---9---9/10\9---7/5---9---9/10\9----7-------------------------|
F|---------------------------------------------------------------------------|
C|---------------------------------------------------------------------------|
G|---------------------------------------------------------------------------|
D|---------------------------------------------------------------------------|

[Chorus] play 2 times
D|---------------------------------------------------------------------------|
A|---------------------------------------------------------------------------|
F|----------------2-2-2-2--2-2-2-2--2-2-2-2--2-2-2-2--2-2-2-2--2-2-2-2-------|
C|-2----2-2-2-2---2-2-2-2--2-2-2-2--2-2-2-2--2-2-2-2--2-2-2-2--2-2-2-2-------|
G|-2----2-2-2-2---0-0-0-0--0-0-0-0--0-0-0-0--0-0-0-0--0-0-0-0--0-0-0-0-------|
D|-0----0-0-0-0--------------------------------------------------------------|

D|---------------------------------------------------------------------------|
A|---------------------------------------------------------------------------|
F|----------------2-2-2-2--2-2-2-2--2-2-2-2-----------------2-2-2-2--2-2-2-2-|
C|-2----2-2-2-2---2-2-2-2--2-2-2-2--2-2-2-2--4-4-4-4---4-4--2-2-2-2--2-2-2-2-|
G|-2----2-2-2-2---0-0-0-0--0-0-0-0--0-0-0-0--4-4-4-4---4-4--0-0-0-0--0-0-0-0-|
D|-0----0-0-0-0------------------------------2-2-2-2---2-2-------------------|

[Verse 2] 
D|--0--0--0---0---0---0--------0-----0---0---------0-------------------------|
A|--5--5--5---7---9---9/10\9---7/5---9---9/10\9----7-------------------------|
F|---------------------------------------------------------------------------|
C|---------------------------------------------------------------------------| play 4 times
G|---------------------------------------------------------------------------|
D|---------------------------------------------------------------------------|

D|---------------------------------------------------------------------------|
A|---------------------------------------------------------------------------|
F|-6-6-6-6--6-6-6-6------------------------------------------------9-9-9-9---| play 2 times
C|-6-6-6-6--6-6-6-6--7-7-7-7--7-7-7-7---6-6-6-6--6-6-6-6--7-7-7-7--9-9-9-9---|
G|-4-4-4-4--4-4-4-4--7-7-7-7--7-7-7-7---4-4-4-4--4-4-4-4--7-7-7-7--7-7-7-7---|
D|-------------------5-5-5-5--5-5-5-5---------------------5-5-5-5------------|

[Chorus] play 2 times
D|---------------------------------------------------------------------------|
A|---------------------------------------------------------------------------|
F|----------------2-2-2-2--2-2-2-2--2-2-2-2--2-2-2-2--2-2-2-2--2-2-2-2-------|
C|-2----2-2-2-2---2-2-2-2--2-2-2-2--2-2-2-2--2-2-2-2--2-2-2-2--2-2-2-2-------|
G|-2----2-2-2-2---0-0-0-0--0-0-0-0--0-0-0-0--0-0-0-0--0-0-0-0--0-0-0-0-------|
D|-0----0-0-0-0--------------------------------------------------------------|

D|---------------------------------------------------------------------------|
A|---------------------------------------------------------------------------|
F|----------------2-2-2-2--2-2-2-2--2-2-2-2-----------------2-2-2-2--2-2-2-2-|
C|-2----2-2-2-2---2-2-2-2--2-2-2-2--2-2-2-2--4-4-4-4---4-4--2-2-2-2--2-2-2-2-|
G|-2----2-2-2-2---0-0-0-0--0-0-0-0--0-0-0-0--4-4-4-4---4-4--0-0-0-0--0-0-0-0-|
D|-0----0-0-0-0------------------------------2-2-2-2---2-2-------------------|

[Bridge] 
D|------------------------------------------0--------------0-----------------|
A|------------------------------------------------0------------0-------------|
F|--------------------------------------9------9------8h9----9---------------|
C|-9h11--11--11p9-----9h11--11--11p9-----------------------------------------| play 4 times
G|-0-----0---0--------0-----0---0--------------------------------------------|
D|---------------------------------------------------------------------------|

D|--0--0--0---0---0---0--------0-----0---0---------0-------------------------|
A|--5--5--5---7---9---9/10\9---7/5---9---9/10\9----7-------------------------|
F|---------------------------------------------------------------------------|
C|---------------------------------------------------------------------------| play 2 times
G|---------------------------------------------------------------------------|
D|---------------------------------------------------------------------------|


[Chorus] play 2 times
D|---------------------------------------------------------------------------|
A|---------------------------------------------------------------------------|
F|----------------2-2-2-2--2-2-2-2--2-2-2-2--2-2-2-2--2-2-2-2--2-2-2-2-------|
C|-2----2-2-2-2---2-2-2-2--2-2-2-2--2-2-2-2--2-2-2-2--2-2-2-2--2-2-2-2-------|
G|-2----2-2-2-2---0-0-0-0--0-0-0-0--0-0-0-0--0-0-0-0--0-0-0-0--0-0-0-0-------|
D|-0----0-0-0-0--------------------------------------------------------------|

D|---------------------------------------------------------------------------|
A|---------------------------------------------------------------------------|
F|----------------2-2-2-2--2-2-2-2--2-2-2-2-----------------2-2-2-2--2-2-2-2-|
C|-2----2-2-2-2---2-2-2-2--2-2-2-2--2-2-2-2--4-4-4-4---4-4--2-2-2-2--2-2-2-2-|
G|-2----2-2-2-2---0-0-0-0--0-0-0-0--0-0-0-0--4-4-4-4---4-4--0-0-0-0--0-0-0-0-|
D|-0----0-0-0-0------------------------------2-2-2-2---2-2-------------------|

D|---------------------------------------------------------------------------|
A|---------------------------------------------------------------------------|
F|---------------------------------------------------------------------------|
C|-9h11--11--11p9-----9h11--11--11p9\----------------------------------------|
G|-0-----0---0--------0-----0---0--------------------------------------------|
D|---------------------------------------------------------------------------|

************************************

| h   Hammer-on
| p   Pull-off
| /   Slide up
| \   Slide down

************************************

            
            
Suggest correction
Creating personal tab
Creating personal tab
You can edit any tab online and save it as your Personal.

You can edit, replace or remove any tab part or add personal notes – all changes will be seen only by you.

Personal tabs can be accessed anytime from any device, even offline.
Learn more »
comments
print report bad tab
5 comments total. Showing first comments.
0 reply
jbm565 238 5 days ago, edited at 03:41 pm

great tab dude!

0 reply
VictorHu 10 4 days ago

Amazing tab, but it's not in Drop B though just saying

0 reply
VictorHu 10 3 days ago

Thanks for writing this, I've really wanted to play the song when it came out

guest
You may want to rate the tab now too:
select rating
Wanna post a correction for this tab? Suggest correction