Oops, an error
Loading. Please wait.

Placeholder Bass Tab

version 1
version 1

Whole song

Interactive

49 views 1 this week
no commentswrite comment
1 2 3 4 5
3 more votes to show rating
add to favorites
launch autoscroll
font size
0
reset
guitar tuner
Autoscroll
slow
fast
+/-
esc
set tempo
stop
Help us to improve Ultimate-Guitar.com Take our survey!
×
The Story So Far - Placeholder

Verse/Chorus (No bass)

Verse II
G|---------------------------------------------------------------------|
D|--------4-4--5-5---------5-5--4-4------------------------------------|
A|-5-5--------------7-7---------------------5-5--7-7-------------------| x 2
E|-----------------------------------7-7--------------3-3----3-3--3-3--|

Chorus x 2
G|-----------------------------------------------------------------|
D|-----------------------------------------------------------------|
A|---------------------------------2-2-2-2-2-2-2-2-2-2-2-2-2-2-2-2-|
E|-3-3-3-3-3-3-3-3-3-3-3-3-3-3-3-3---------------------------------|

G|-----------------------------------------------------------------|
D|-----------------------------------------------------------------|
A|---------------------------------2-2-2-2-2-2-2-2-0-0-0-0-0-0-0-0-|
E|-3-3-3-3-3-3-3-3-3-3-3-3-3-3-3-3---------------------------------|

Bridge
G|----------------------------------|
D|----------------------------------|
A|-(5)~-----------------------------| x 2
E|----------------------------------|

G|------------------------------------------------------------------------|
D|------------------------------------------------------------------------|
A|------------------0~----------------2~----------------0~----------------|
E|-3~---------------------------------------------------------------------|

"Running around in circles, the life I always choose"
G|-------------------------------------------------------------------------------------------------|
D|-------------------------------------------------------------------------------------------------|
A|-5--5--5--5--5--5--5--5--------------------------2--2--2--2--2--2--2--2--------------------------|
E|-------------------------3--3--3--3--3--3--3--3--------------------------5--5--5--5--5--5--5--5--|
                                                                                                      x 2
G|-------------------------------------------------------------------------------------------------|
D|-------------------------------------------------------------------------------------------------|
A|-------------------------5--5--5--5--5--5--5--5--2--2--2--2--2--2--2--2--------------------------|
E|-3--3--3--3--3--3--3--3--------------------------------------------------5--5--5--5--5--5--5--5--|

End on:
G|---------------------------------------------------------------------------|
D|---------------------------------------------------------------------------|
A|---------------------------------------------------------------------------|
E|-3~------------------------------------------------------------------------|

Happy playing!


************************************

| x   Dead note
| g   Grace note
| (n) Ghost note
| h   Hammer-on
| p   Pull-off
| r   Release
| >   Accented note
| t   Tapping
| b   Bend
| br  Bend release
| pb  Pre-bend
| pbr Pre-bend release
| /   Slide up
| \   Slide down
| ~   Vibrato
| s   Slap
| P   Pop
| PM  Palm mute
| TR  Trill
| N   Tremolo

************************************
Suggest correction
Give kudos to tab author, rate the tab!
1 2 3 4 5
comments
print report bad tab
guest
You may want to rate the tab now too:
select rating
Wanna post a correction for this tab? Suggest correction