Oops, an error
Loading. Please wait.

Scowl tab

872 views 1 this week
no commentswrite comment
1 2 3 4 5
3 more votes to show rating
add to favorites
×
Save as Personal and add changes to this tab that will be seen only by you. Learn more ›
×
You can save this tab as Personal to edit and correct it or add notes. All changes will be seen only by you. Learn more »
launch autoscroll
font size
0
reset
how to read this tab
guitar tuner
edit
Autoscroll
slow
fast
+/-
esc
set tempo
stop
-------------------------------------------------------------------------------
                             Scowl - The Story So Far
-------------------------------------------------------------------------------
Tabbed by: Mike
E-mail: 14caiom@gmail.com

Tuning:HALF STEP DOWN FOR BETTER SOUND


Lead/Rhythm.  Anything to add?, leave a comment or email.

//////Lead Guitar////////

Prechorus::::


E|----------------------------------------------|
B|----------------------------------------------|
G|----------------------------------------------|
D|----11-11-11---x-x---11-11-11-----------------|
A|----12-12-12---x-x---12-12-12-----------------|
E|----10-10-10---x-x---10-10-10-----------------|


(* means hold note for a sec, play along with song it will make more sense)

Chorus::::: (0:02)

                      {A}                                         {B}

E|-----------5*--2--------------------5*--7--5--2---|-----------5*---2-------------|
B|---3/5--5----------5--3-----3/5--5----------------|---3/5--5-----------5--3------|
G|--------------------------------------------------|------------------------------|
D|--------------------------------------------------|------------------------------|
A|--------------------------------------------------|------------------------------|
E|--------------------------------------------------|------------------------------|

Verse 1::::(0:08)
(Rough estimate to amount of notes)

"Tell me did you practice what you said to meee"       "There..............be"

E|-------------------------------------------|----------------------------------------|
B|-------------------------------------------|----------------------------------------|
G|---0--------------4------------------------|--0---------4---------------------------|
D|----------------------------------2--------|---------------------2------5--2--------|
A|------(x16)--------(x8)-------------(x8)---|---(x16)-----(x6)-----(x4)--------------|
E|-------------------------------------------|----------------------------------------|
pm   .              .               .            .        .        .      .  .


Verse 2:::

"Is that supposed to some kind of joke to mee"       "Leave home tour hard then well see"

"""""""12's, 14's, and 16's""""""

E|-------------------------------------------|-------------------------------------------|
B|-------------------------------------------|---------------3--3--3--5--5--7--7--5--5---|
G|----0-------------4------------------------|--0------4-4-4-----------------------------|
D|----------------------------------2--------|-------------------------------------------|
A|------(x16)--------(x8)-------------(x8)---|---(x16)-----------------------------------|
E|-------------------------------------------|-------------------------------------------|
pm   .              .               .            .


(Pre-Chorus)(0:25)

(Chorus A x3, then B)

Verse(different than first)::WHOLE THING x2  (0:41)

"When you left you ruined your name for meee...I wear a scowl so that they can always see.."


E|-------------------------------------------|---------------------------------------------|
B|-------------------------------------------|---------------------------------------------|
G|-------------------------------------------|---------------------------------------------|
D|---5--------------9-------2-------5--2-----|--5---------9-9-9-12-12-12-14-14-16-16-14-14-|
A|------(x16)--------(x6)-----(x4)-----------|---(x16)-------------------------------------|
E|-------------------------------------------|---------------------------------------------|
pm   .              .       .                    .


(Pre-chorus)(0:58)

(Chorus A x3, Then B)

(1:18)

E|---------------5--------|
B|---5p3---3h5------------|
G|------------------------|
D|------------------------|
A|------------------------|
E|------------------------|


Bridge:(1:23)


E|-------------------------------------------------------------------------------------------|
B|-------------------------------------------------------------------------------------------|
G|-------------------------------------------------------------------------------------------|
D|---4-0-0-0-4-0-4-0-0-0----7-7-7-7-7-7---4-4-4-4-4-4-4--------------------------------------|
A|-------------------------------------------------------------------------------------------|
E|-------------------------------------------------------------------------------------------|
pm .......................................................

E|-----------------------------------------------------|
B|-----------------------------------------------------|
G|-----------------------------------------------------|
D|---4-0-0-0-4-0-4-0-0-0---5-5-5-5-5-5----2-2-2-2-2-2--|
A|-----------------------------------------------------|
E|-----------------------------------------------------|
pm .........................................................

(NO PALM MUTE FROM HERE) (1:31)

E|-------------------------------------------------------------------------------------------|
B|-------------------------------------------------------------------------------------------|
G|-------------------------------------------------------------------------------------------|
D|---4-0-0-0-4-0-4-0-0-0----7-7-7-7-7-7---4-4-4-4-4-4-4--------------------------------------|
A|-------------------------------------------------------------------------------------------|
E|-------------------------------------------------------------------------------------------|


                                 (1:38............1:39)8
E|-------------------------------------------------------|
B|-------------------------------------------------------|
G|-------------------------------------------------------|
D|---4-0-0-0-4-0-4-0-0-0-----------5-5--------------2-2--|
A|-------------------------------------------------------|
E|-------------------------------------------------------|


E|--------------------------------------------------------|
B|--------------------------------------------------------|
G|--------------------------------------------------------|
D|---4-0-0-0-4-0-4-0-0-0-----7-7---9-9---5-5---4-4---2-2--|
A|--------------------------------------------------------|
E|--------------------------------------------------------|

                                                                           (1:48)     (1:52)
E|-----------------------------------------------------------------------------------------|
B|-----------------------------------------------------------------------------------------|
G|----------------------------------------------------------------------------7------------|
D|---4-0-0-0-4-0-4-0-0-0-----5-5-5---4-4-4---2-2---4-4------------------------7-------4/7--|
A|----------------------------------------------------------------------------5------------|
E|-----------------------------------------------------------------------------------------|

(Pre-chorus)(1:55)
(Chorus A x6, do NOT play 2(LAST NOTE) on high E string on last play through)


//////Rhythm Guitar/////////

Pre-chorus/////////////// chorus: (x2)

(alternate strumming)

E|--------------------------------------------------------------------|
B|--------------------------------------------------------------------|
G|---6-6-6---x-x---6-6-6---x-x---4-4-4---x-x--------------------------|
D|---7-7-7---x-x---7-7-7---x-x---4-4-4---x-x---5-5-5-5-5-5------------|
A|---5-5-5---x-x---5-5-5---x-x---2-2-2---x-x---5-5-5-5-5-5------------|
E|---------------------------------------------3-3-3-3-3-3------------|
pm           . .           . .           . .

Verse:(0:08)
(Again amount of times strummed may not be exactly right)
(Power chords so same notes as lead(kinda) except on low e string)

(x4)
"..............Practice....said to me"...
E|--------------------------------------------------|
B|--------------------------------------------------|
G|--------------------------------------------------|
D|---5----------9-----------2-----------------------|
A|---5--(x12)---9---(x6)----2---(x6)----------------|
E|---3----------7-----------0-----------------------|
pm ...............................................

(Prechorus/chorus x4 ) (0:25)

(Verse x4)(0:41)

(Prechorus/chorus x4) (0:58)


Bridge: (1:32)

E|--------------------------------------------------------------|
B|--------------------------------------------------------------|
G|----------------------------------7-7-7-7-7-7-----------------|
D|----5--x-x-x--5--x--5--x-x-x------7-7-7-7-7-7----4-4-4-4-4-4--|
A|----5--x-x-x--5--x--5--x-x-x------5-5-5-5-5-5----4-4-4-4-4-4--|
E|----3--x-x-x--3--x--3--x-x-x---------------------2-2-2-2-2-2--|
pm       . . .     .     . . .      . . . . . .    . . . . . .


E|--------------------------------------------------------------------|
B|--------------------------------------------------------------------|
G|--------------------------------------------------------------------|
D|----5--x-x-x--5--x--5--x-x-x--------2-2----4-4----------------------|
A|----5--x-x-x--5--x--5--x-x-x--------2-2----4-4----------------------|
E|----3--x-x-x--3--x--3--x-x-x--------0-0----2-2----------------------|
pm       . . .     .     . . .

E|-------------------------------------------------------------------|
B|-------------------------------------------------------------------|
G|----------------------------------7-7-7-7-7-7----------------------|
D|----5--x-x-x--5--x--5--x-x-x------7-7-7-7-7-7----4-4-4-4-4-4-------|
A|----5--x-x-x--5--x--5--x-x-x------5-5-5-5-5-5----4-4-4-4-4-4-------|
E|----3--x-x-x--3--x--3--x-x-x---------------------2-2-2-2-2-2-------|
pm       . . .     .     . . .      . . . . . .    . . . . . .


E|-------------------------------------------------------------------|
B|-------------------------------------------------------------------|
G|-------------------------------------------------------------------|
D|----5--x-x-x--5--x--5--x-x-x------2-2-2-2-2-2----4-4-4-4-4-4-------|
A|----5--x-x-x--5--x--5--x-x-x------2-2-2-2-2-2----4-4-4-4-4-4-------|
E|----3--x-x-x--3--x--3--x-x-x------0-0-0-0-0-0----2-2-2-2-2-2-------|
pm       . . .     .     . . .      . . . . . .    . . . . . .


(Prechorus/Chorus x6 roughly)(1:48)

Outro: (2:12)  x2

Weird rhythm


E|--------------------------------------|
B|--------------------------------------|
G|---7------------4---------------------|
D|---7--(x8)------4--(x4)------5--------|
A|---5------------2------------5--(x4)--|
E|-----------------------------3--------|

End on: (2:21)

E|-----------|
B|-----------|
G|-----------|
D|------5----|
A|------5----|
E|------3----|


************************************

| /   slide up
| \   slide down
| h   hammer-on
| p   pull-off
| ~   vibrato
| +   harmonic
| x   Mute note
| b   Bend
| pb  Pre-bend
| br  Bend release
| pbr Pre-bend release
| brb Bend release bend

************************************

            
            
Suggest correction
Creating personal tab
Creating personal tab
You can edit any tab online and save it as your Personal.

You can edit, replace or remove any tab part or add personal notes – all changes will be seen only by you.

Personal tabs can be accessed anytime from any device, even offline.
Learn more »
Give kudos to tab author, rate the tab!
1 2 3 4 5
comments
print report bad tab
guest
You may want to rate the tab now too:
select rating
Wanna post a correction for this tab? Suggest correction