Oops, an error
Loading. Please wait.

Small Talk Tab

version 1
version 1

Whole song

Interactive

6,676 views 27 this week
1 commentread comment
1 2 3 4 5
excellent!
x 7
add to favorites
launch autoscroll
font size
0
reset
how to read this tab
guitar tuner
Tab Pro tools
  • play this tab
  • loop segment
  • change instrument
  • show fretboard
  • metronome
×
Best way to learn
"Small Talk"
Autoscroll
slow
fast
+/-
esc
set tempo
stop
Contributor
Difficulty
Tuning
intermediate
D# G# C# F# A# D#
Small Talk by The Story So Far
Half Step Down
~:Quick bends/wiggles
x:Muted

Done by ear and watching covers on youtube
Let me know if anything is off

For the rest of the songs off the album go to
http://www.youtube.com/user/PopPunkGuitarCovers
He has the songs I didn't put up tabbed and videos with them

|---|
|-0-|
|-4-|
|-2-|
|-2-|
|---|
Intro/Main Riff
|------------------------------------------------------------------------|-----|
|------------------------------------------------------------------------|---0-|
|---------8-8-8-----------8-8/9\8----------8-8-8------------------8/9\8--|---4-|
|------------------------------------------------------------------------|---2-|(End with
|--2-2----6-6-6---2-2-----6-6/7\6---2-2----6-6-6----6-6---4-4-----6/7\6--|-2---| either on
|--0-0------------0-0---------------0-0-------------4-4---2-2------------|-0---| last time)

Verse
|----------|--------------------------------------------------|------|
|----------|--------------------------------------------9-7---|------|
|--6\8--8~-|-------4-6--8-9-11p8~---------4-6--8-9-11---------|-9-8--|
|----------|-6-4----------------------6-4---------------------|------|(Add that the 4th time)
|----------|--------------------------------------------------|------|
|----------|--------------------------------------------------|------|

Semi-Chorus thing
|------------------------------------------------------|
|------------------------------------------------------|
|-----------------------------4-6--8~-11~--8~--4~------|
|--44444444444444--6666--6-4---------------------------|
|--22222222222222--4444-----------------------------2--|
|---------------------------------------------------0--|
   xxxxxxxxxxxxxx  xxxx

Intro/Main Riff again 

Full guitars chorus
Rhythm Guitar
|--------------------------------------------------------------------------|
|--------------------------------------------------------------------------|
|--------------------------------------------------------------------------|
|--4444444444444444---6666666666666666-------------------------4444--6666--|
|--2222222222222222---4444444444444444---22222222222222222222--4444--6666--|
|----------------------------------------00000000000000000000--2222--4444--|
Lead Guitar
|-----------------------------------------------------------------------------------------------|
|-----------------------------------------9-7-----------------------------------------9-7-------|
|--------4-6--8-9-11~--------4-6--8-11----------------4-6--8-9-11~---------4-6--8-11-------9-8--|
|--6-4-------------------6-4---------------------6-4-------------------6-4----------------------|
|-----------------------------------------------------------------------------------------------|
|-----------------------------------------------------------------------------------------------|

Bridge
Lead does Intro/Main Riff
Rhythm does
|----------------------------------------------|
|----------------------------------------------|
|----------------------44444444----------------|
|--66666666--22222222--44444444--4444-4-4-4-4--|
|--66666666--22222222--22222222--4444-4-4-4-4--|
|--44444444--00000000------------2222-2-0-2-0--|

Last Chorus

End with
|---|
|---|
|---|
|-2-|
|-2-|
|-0-|
comments
print report bad tab
1 comment total.
0 reply
umerkornslayer wrote on February 11 2014, 01:47 pm

Excellent! Thank you. :3

I want to post or [tab]
guest
You may want to rate the tab now too:
select rating
Please do not post tabs as comments. Select "correction" instead!