Oops, an error
Loading. Please wait.

Swords And Pens Tab

version 1
version 1

Whole song

10,658 views 27 this week
1 commentread comment
1 2 3 4 5
accurate
x 4
add to favorites
launch autoscroll
font size
0
reset
how to read this tab
guitar tuner
Autoscroll
slow
fast
+/-
esc
set tempo
stop
Help us to improve Ultimate-Guitar.com Take our survey!
×
Difficulty
Capo
intermediate
1st fret
-------------------------------------------------------------------------------
                             Swords and Pens - The Story So Far
-------------------------------------------------------------------------------
Tabbed by:
E-mail:

Tuning:Standard
Capo 1
Tab relative to capo

Intro
e|--------------------------------------|
B|--------------------------------------|
G|--------------------------------------|
D|3-3-xx-2-3-3-xx-2-3-3-xx-2-7-5--------|x2
A|3-3-xx-3-3-3-xx-3-3-3-xx-3-7-5--------|
E|1-1-xx-0-1-1-xx-0-1-1-xx-0-5-3--------|

e|--------------------------------------|
B|--------------------------------------|
G|--------------------------------------|
D|3-3-xx-2-3-3-xx-2-3-3-xx-2--7-5-------|
A|3-3-xx-3-3-3-xx-3-3-3-xx-3------------|
E|1-1-xx-0-1-1-xx-0-1-1-xx-0-5-3--------|

e|--------------------------------------|
B|--------------------------------------|
G|--------------------------------------|
D|3-3-xx-2-3-3-xx-2-3-3-xx-2-7-5--------|
A|3-3-xx-3-3-3-xx-3-3-3-xx-3-7-5--------|
E|1-1-xx-0-1-1-xx-0-1-1-xx-0-5-3--------|

e|--------------------------------------|
B|--------------------------------------|
G|--------------------------------------|
D|3-3-xx-2-3-3-xx-2-3-3-xx-2--7-5-------|
A|3-3-xx-3-3-3-xx-3-3-3-xx-3------------|
E|1-1-xx-0-1-1-xx-0-1-1-xx-0-5-3--------|

e|--------------------------------------|
B|--------------------------------------|
G|--------------------------------------|
D|33333333-5555-777-5-------------------|
A|33333333-5555-777-5-------------------|
E|11111111-3333-555-3-------------------|

Verse
e|--------------------------------------|
B|--------------------------------------|
G|--------------------------------------|
D|33333333-5555-777-5-------------------|x2
A|33333333-5555-777-5-------------------|
E|11111111-3333-555-3-------------------|

e|---------------------------------------------------------------------------|
B|---------------------------------------------------------------------------|
G|---------------------------------------------------------------------------|
D|3----------------5-5-7-3----------5555-------------------------------------|
A|1-LET RING-------5-5-7-3-LET RING-5555-------------------------------------|
E|1----------------3-3-5-1----------3333-------------------------------------|
        
e|---------------------------------------------------------------------------|
B|---------------------------------------------------------------------------|
G|---------------------------------------------------------------------------|
D|33333333-7777-101010-12-----3----------------------------------------------|
A|33333333-7777-101010-12--x2-3----------------------------------------------|
E|11111111-5555-8-8-8--10-----1----------------------------------------------|

"I'm fallin' in and out again"

Pre-Chorus

e|---------------------------------------------------------------------------|
B|---------------------------------------------------------------------------|
G|---------------------------------------------------------------------------|
D|555--33333333-5555-7775-33333333--5555-------------------------------------|
A|555--33333333-5555-7775-33333333--5555-777-555-----------------------------|
E|333--11111111-3333-5553-11111111--3333-555-333-----------------------------|

Chorus
e|---------------------------------------------------------------------------|
B|---------------------------------------------------------------------------|
G|-----5555------------------------------------------------------------------|
D|3333-5555-7777-5555--------------------------------------------------------|x4
A|3333-3333-7777-5555--------------------------------------------------------|
E|1111------5555-3333--------------------------------------------------------|

e|---------------------------------------------------------------------------|
B|---------------------------------------------------------------------------|
G|---------------------------------------------------------------------------|
D|3-7-5--3-7-5---------------------------------------------------------------|
A|3-7-5--3-7-5---------------------------------------------------------------|
E|1-5-3--1-5-3---------------------------------------------------------------|

Post Chorus
e|---------------------------------------------------------------------------|
B|---------------------------------------------------------------------------|
G|---------------------------------------------------------------------------|
D|3-xx-3-xx-3-xx-3-xx-33-7-xx-7-xx-7-xx-7-xx-75------------------------------|x2
A|3-xx-3-xx-3-xx-3-xx-33-7-xx-7-xx-7-xx-7-xx-75------------------------------|
E|1-xx-1-xx-1-xx-1-xx-11-5-xx-5-xx-5-xx-5-xx-53------------------------------|

e|---------------------------------------------------------------------------|
B|---------------------------------------------------------------------------|
G|---------------------------------------------------------------------------|
D|3-xx-3-xx-3-xx-3-xx-55-----------------------------------------------------|
A|3-xx-3-xx-3-xx-3-xx-55-----------------------------------------------------|
E|1-xx-1-xx-1-xx-1-xx-33-----------------------------------------------------|

Chorus

Ending
e|--------------------------------------|
B|--------------------------------------|
G|--------------------------------------|
D|33333333------------------------------|
A|33333333------------------------------|
E|11111111------------------------------|
PM-------]

e|--------------------------------------|
B|--------------------------------------|
G|--------------------------------------|
D|3-3-xx-2-3-3-xx-2-3-3-xx-2-7-5--------|x4
A|3-3-xx-3-3-3-xx-3-3-3-xx-3-7-5--------|
E|1-1-xx-0-1-1-xx-0-1-1-xx-0-5-3--------|


e|--------------------------------------|
B|--------------------------------------|
G|--------------------------------------|
D|3-2-3-2-3-2-7-5-3---------------------|
A|3-3-3-3-3-3-7-5-3---------------------|
E|1-0-1-0-1-0-5-3-1---------------------|

************************************


| /   slide up
| \   slide down
| h   hammer-on
| p   pull-off
| ~   vibrato
| +   harmonic
| x   Mute note
| b   Bend
| pb  Pre-bend
| br  Bend release
| pbr Pre-bend release
| brb Bend release bend

************************************
Suggest correction
What's this?
You can suggest a correction to this tab. Community and Mods will review your correction and vote to approve or reject it.
comments
print report bad tab
1 comment total.
0 reply
jBracken_2010 149 wrote on March 19 2013, 04:22 pm

Awesome on the rhythms, please try and get the octaves and such up

guest
You may want to rate the tab now too:
select rating
Please do not post tabs as comments. Select "correction" instead!