Oops, an error
Loading. Please wait.

Things I Cant Change bass

version 1
version 1

Whole song

Interactive

1,896 views 6 this week
2 commentsread comments
1 2 3 4 5
x 3
add to favorites
×
Save as Personal and add changes to this tab that will be seen only by you. Learn more ›
×
You can save this tab as Personal to edit and correct it or add notes. All changes will be seen only by you. Learn more »
launch autoscroll
font size
0
reset
guitar tuner
edit
Autoscroll
slow
fast
+/-
esc
set tempo
stop
-------------------------------------------------------------------------------
        Things I Cant Change - The Story So Far
-------------------------------------------------------------------------------
Tabbed by: Cohen Robins
E-mail: CohenRobins123@Gmail.com

So I tried making the rhythm fit into the tab, so they it's easier to understand. The 4 
to last tab i'mstill not sure of. I tried getting it to sound as close to the song as I 
could. I hope you enjoy this
tab, it's my first one, and maybe even my last one.

Tuning:Eb,Ab,Db,Gb

Gb|---------------------------------------------------|
Db|----------------4---44------------------4444444444-|
Ab|---------------------------------------------------|
Eb|-55--5-0--22--2---2----0-2-4-5--5-0--22------------|

Gb|---------------------------------------------|
Db|---------------------------------------------|
Ab|---------------------------------------------|
Eb|-5555555555-0000000000-2222222222-22-22-2222-|

Gb|-------------------------------------------|
Db|-------------------------------------------|
Ab|-------------------------------------------|
Eb|-5555555555-0000000000-2222222222-22-2-12/-|

Gb|--------------------------------------------------------------|
Db|--------------------------------------------------------------|
Ab|--------------------------------------------------------------|x2
Eb|-5-5-5--5-55-55--9-9-9---4-04-04--55555-5-5-5--0-0-0--2-02-02-|

Gb|------------------------------------------------|
Db|------------------------------------------------|
Ab|------------------------------------------------|
Eb|-5---5555555555-0000000000-33333333333333333333-|

Gb|------------------------------------------------------------------------------|
Db|------------------------------------------------------------------------------|
Ab|------------------------------------------------------------------------------|
Eb|-5-05-5-5-55--0-00-0-0-00--3-33-3-3-33-3-33-3-3-33-3333\5---5---5-5-5-55-55-55|

Gb|-------------------------------------------------------------|  |-------|
Db|-------------------------------------------------------------|  |-------|
Ab|-------------------------------------------------------------|x2|-------|
Eb|-5-5-5--5-55-55--9-9-9--4-04-04--55555-5-5-5--0-0-0--3-03-03-|  |-5-----|

Gb|-------------------------|
Db|-------------------------|
Ab|-------------------------|x2
Eb|-5-----9-----7-----2-----|

Gb|----------------------------|  |------------------------|
Db|-----7---------------6------|  |------------------------|
Ab|---7---------------079--970--|x2|-----------------------|
Eb|-5------9-09-09--7----------|  |-22-22--22-22--22-22----|

Gb|--------------------------------------|
Db|--------------------------------------|
Ab|--------------------------------------|
Eb|-5-5-5--5-55-55--9-9-9--4-04-04--15/5-|

Gb|---------------------------------------------------------------|
Db|---------------------------------------------------------------|
Ab|---------------------------------------------------------------|x2
Eb|-5-5-5--5-55-55--0-0-0--2-02-02--5-5-5--5-55-55-9-9-9--4-04-04-|

Gb|---------------------------------|
Db|---------------------------------|
Ab|---------------------------------|
Eb|-55555--5-5-5--0-0-0--2-02-02--5-|

| /  slide up
| \  slide down
| h  hammer-on
| p  pull-off
| ~  vibrato
| +  harmonic
| x  Mute note
===============================================================================

            
            
Suggest correction
Creating personal tab
Creating personal tab
You can edit any tab online and save it as your Personal.

You can edit, replace or remove any tab part or add personal notes – all changes will be seen only by you.

Personal tabs can be accessed anytime from any device, even offline.
Learn more »
Give kudos to tab author, rate the tab!
1 2 3 4 5
comments
print report bad tab
2 comments total.
0 reply
PartyPoison182 183 Jan 30, 2016 01:59 PM

Sounds like those 3s in the second verse are supposed to be 2s.

0 reply
telenofunken 101 Jul 22, 2016 07:46 PM

Good tab dude

guest
You may want to rate the tab now too:
select rating
Wanna post a correction for this tab? Suggest correction