Oops, an error
Loading. Please wait.

Golden Brown tab

version 1
version 1

Whole song

Interactive

28,589 views 63 this week
5 commentsread comments
1 2 3 4 5
x 9
add to favorites
×
Save as Personal and add changes to this tab that will be seen only by you. Learn more ›
×
You can save this tab as Personal to edit and correct it or add notes. All changes will be seen only by you. Learn more »
launch autoscroll
font size
0
reset
how to read this tab
guitar tuner
backing track
0:00
0:00
edit
Autoscroll
slow
fast
+/-
esc
set tempo
stop
Author
Unregistered
[Intro]
     Am          Em        F             C
e|-----0-----0-0-----0-0-----1-----1-1-----0---0---0---0--|
B|-----1-----1-1-----0-0-----1-----1-1-----1---1---1---1--|
G|-----2-----2-2-----0-0-----2-----2-2-----0---0---0---0--| (x3)
D|---------------------------------------2---0---3---2----|
A|---0-----0----------------------------------------------|
E|---------------0---------1-----1------------------------|

     Am          Em        G             F
e|-----0-----0-0-----0-0-----3-----3-3-----1---1---1---1--|
B|-----1-----1-1-----0-0-----0-----0-0-----1---1---1---1--|
G|-----2-----2-2-----0-0-----0-----0-0-----2---0---0---0--|
D|---------------------------------------3---2---0---3----|
A|---0-----0----------------------------------------------|
E|---------------0---------3-----3------------------------|

     Dm            C6          Dm              C6
e|-----1-----1-1-------0---0--|----1-----1-1-------0---0--|
B|-----3-----3-3-------1---1--|----3-----3-3-------1---1--|
G|-----2-----2-2-------2---2--|----2-----2-2-------2---2--|
D|---0-----0-------2-------3--|--0-----0-------2-------3--|
A|----------------------------|---------------------------|
E|----------------------------|---------------------------|

(The rest of the song should be played using similar rhythm)

Dm      C6     Dm           C6
Golden Brown, texture like sun
Dm       C6    Dm           C6
Lays me down, with my mind she runs
Dm              C6    Dm          C6
Throughout the night, no need to fight
Dm       C6    Dm          C6
Never a frown with Golden Brown

Dm  C6   Dm  C6

Every time, just like the last
On the ship tied to the mast
To distant lands, takes both my hands
Never a frown with Golden Brown

Am  Em  F  G6     Am  Em  F  G6     Am  Em  F  G6     Am  Em  G  F
Dm  C6   Dm  C6

Golden Brown, fine a temptress
Through the ages she's heading west
From far away, stays for a day
Never a frown with Golden Brown

Am  Em  F  G6     Am  Em  F  G6     Am  Em  F  G6     Am  Em  G  F
Dm  C6   Dm  C6

[Solo]
e|-------------------|-----------------|-----------------|-----------------|
B|-------------------|-----------------|-----------------|-----------------|
G|---10-9-10-9-10-9--|-10-9-10-9-10-9--|-10-9-10-9-10-9--|-10-9-10-9-10-9--|
D|-------------------|-----------------|-----------------|-----------------|
A|-------------------|-----------------|-----------------|-----------------|
E|-------------------|-----------------|-----------------|-----------------|

e|-------------------|-----------------|----------------------|
B|-------------------|-----------------|----------------------|
G|---10-9-10-9-10-9--|-10-9-10-9-10-9--|-10-9-10-9-10/12~~~~--|
D|-------------------|-----------------|----------------------|
A|-------------------|-----------------|----------------------|
E|-------------------|-----------------|----------------------|

e|-------------------|-------------------|---------|
B|-------------------|-------------------|---------|
G|---10-9-10-9-10-9--|-10-9-10-9-10-9-7--|--5------|
D|-------------------|-------------------|----7-5--|
A|-------------------|-------------------|---------|
E|-------------------|-------------------|---------|

e|---10-8--------------|--10-8--------------|
B|---------10-8--------|--------10-8--------|
G|---------------10-9--|--------------10-9--|
D|---------------------|--------------------|
A|---------------------|--------------------|
E|---------------------|--------------------|

Now for the tricky bit
e|-----------------|-----------------|---------------|-10-8~~--|
B|-----------------|-10-8------------|---------8-10--|---------|
G|-----------9-10--|------10-9-------|----9-10-------|---------|
D|------9-10-------|-----------10-9--|-10------------|---------|
A|---10------------|-----------------|---------------|---------|
E|-----------------|-----------------|---------------|---------|

Dm  C6   Dm  C6  (4x)
Am  Em  F  G6     Am  Em  F  G6     Am  Em  F  G6     Am  Em  G  F
Dm  C6   Dm  C6


************************************

| /  Slide up
| ~  Vibrato

************************************

            
            
Suggest correction
Creating personal tab
Creating personal tab
You can edit any tab online and save it as your Personal.

You can edit, replace or remove any tab part or add personal notes – all changes will be seen only by you.

Personal tabs can be accessed anytime from any device, even offline.
Learn more »
comments
print report bad tab
5 comments total. Showing first comments.
0 reply
face 10 Oct 10, 2003 08:00 PM

solo is all wrong in this tab

+1 reply
sharky_92 10 Feb 24, 2006 06:21 AM

i think it is capo 1st fret ! but gd tab ova all !

0 reply
gitaarsnaar 62 Aug 09, 2006 01:21 AM

non accurate

guest
Wanna post a correction for this tab? Suggest correction