Oops, an error
Loading. Please wait.

Golden Brown bass

version 2
version 2

Whole song

Interactive

12,607 views 18 this week
2 commentsread comments
1 2 3 4 5
x 5
add to favorites
×
Save as Personal and add changes to this tab that will be seen only by you. Learn more ›
×
You can save this tab as Personal to edit and correct it or add notes. All changes will be seen only by you. Learn more »
launch autoscroll
font size
0
reset
guitar tuner
backing track
0:00
0:00
edit
Autoscroll
slow
fast
+/-
esc
set tempo
stop
Author
THE STRANGLERS - GOLDEN BROWN
     (Tabbed by w7w7w7)


Part 1
G|------------------|      |---------------------------|
D|-8-------4--------|      |-8------6------------------|
A|-----8-------4----| x3   |----8-------9-8-6-4--------|
E|------------------|      |---------------------------|



Part 2
G|------------------|
D|------------------|
A|-6---4---6---4----| x10
E|------------------|


Part 1
Part 2  x5
Part 1
Part 2  x5
Part 1
Part 2  x5


Part 3
G|------------------|
D|-8-------4---6----|
A|-----8------------| --> END
E|------------------|

            
            
Suggest correction
Creating personal tab
Creating personal tab
You can edit any tab online and save it as your Personal.

You can edit, replace or remove any tab part or add personal notes – all changes will be seen only by you.

Personal tabs can be accessed anytime from any device, even offline.
Learn more »
comments
print report bad tab
2 comments total.
0 reply
davidpn 207 May 30, 2008 08:35 PM

In the recording I have, part one goes like:

G|------------------| |---------------------------|
D|-8-------4--------| |-8------6------------------|
A|-----8-------4----| x3 |----8-------9--4-----------|
E|------------------| |---------------------------|

ie, I'm not seeing/hearing the F and D#. Also, for the first section of part 1, it's easier to play:

G|------------------|
D|-8----------------|
A|-----8---9--------| x3
E|-------------9----|

Much less finger movement. Otherwise, excellent.. and thanks very much!

0 reply
w7w7w7 976 Jun 24, 2008 06:59 AM

Thanks!
Yeah you're right about the third part, it's easier to play it your way.

guest
You may want to rate the tab now too:
select rating
Wanna post a correction for this tab? Suggest correction