Oops, an error
Loading. Please wait.

Golden Brown Tab

version 2
version 2

Whole song

Interactive

54,970 views 87 this week
2 commentsread comments
1 2 3 4 5
accurate
x 7
add to favorites
launch autoscroll
font size
0
reset
how to read this tab
guitar tuner
Tab Pro tools
  • play this tab
  • loop segment
  • change instrument
  • show fretboard
  • metronome
×
Best way to learn
"Golden Brown"
Autoscroll
slow
fast
+/-
esc
set tempo
stop
Contributor
Difficulty
Capo
intermediate
2nd fret
The Stranglers - Golden brown
Tabbed by: gitaarsnaar

Capo: 2

e|----0-----0------0-----0-----1-----1--------0----0---0---0--|
B|----1-----1------0-----0-----1-----1--------1----1---1---1--|
G|----2-----2------0-----0-----2-----2--------0----0---0---0--|  3x
D|--------2-------------------------------3-2----0------------|
A|--0------------------2-----------3-----------------3---2----|
E|-------------3p0---------0-1--------------------------------|


e|----0-----0------0-----0-----3-----3-------3-----3---3------|
B|----1-----1------0-----0-----0-----0-------0-----0---0------|
G|----2-----2------0-----0-----0-----0-------0-----0---0------|
D|--------2------------------------0-----0--------------------|
A|--0------------------2-------------------3--2--0------------|
E|-------------3p0---------0-3-----------------------3--------|


e|----0---0--------3---3-------|
B|----1---1--------0---0-------|
G|----2---2--------0---0-------|  20x
D|------------2p0--------------|
A|--0---3----------2-----------|
E|---------------------3-------|


e|----0-----0------0-----0-----1-----1--------0----0---0---0--|
B|----1-----1------0-----0-----1-----1--------1----1---1---1--|
G|----2-----2------0-----0-----2-----2--------0----0---0---0--|  3x
D|--------2-------------------------------3-2----0------------|
A|--0------------------2-----------3-----------------3---2----|
E|-------------3p0---------0-1--------------------------------|


e|----0-----0------0-----0-----3-----3-------3-----3---3------|
B|----1-----1------0-----0-----0-----0-------0-----0---0------|
G|----2-----2------0-----0-----0-----0-------0-----0---0------|
D|--------2------------------------0-----0--------------------|
A|--0------------------2-------------------3--2--0------------|
E|-------------3p0---------0-3-----------------------3--------|


e|----0---0--------3---3-------|
B|----1---1--------0---0-------|
G|----2---2--------0---0-------|  10x
D|------------2p0--------------|
A|--0---3----------2-----------|
E|---------------------3-------|


e|----0-----0------0-----0-----1-----1--------0----0---0---0--|
B|----1-----1------0-----0-----1-----1--------1----1---1---1--|
G|----2-----2------0-----0-----2-----2--------0----0---0---0--|  3x
D|--------2-------------------------------3-2----0------------|
A|--0------------------2-----------3-----------------3---2----|
E|-------------3p0---------0-1--------------------------------|


e|----0-----0------0-----0-----3-----3-------3-----3---3------|
B|----1-----1------0-----0-----0-----0-------0-----0---0------|
G|----2-----2------0-----0-----0-----0-------0-----0---0------|
D|--------2------------------------0-----0--------------------|
A|--0------------------2-------------------3--2--0------------|
E|-------------3p0---------0-3-----------------------3--------|


e|----0---0--------3---3-------|
B|----1---1--------0---0-------|
G|----2---2--------0---0-------|  10x
D|------------2p0--------------|
A|--0---3----------2-----------|
E|---------------------3-------|


Guitar2    |--1-0-1-0-1-0-1s3---1-0-1-0-1-0-1-0-1-0-1-0-1-0-1-0-1-0-1-0-3--1-------10-8-----------10-8-----------|
after 3x|-----------------------------------------------------------------2-0--------10-8-----------10-8---------|
Cres./    |---------------------------------------------------------------------------------10-9-----------10-9--|
    |------------------------------------------------------------------------------------------------------------|
    |------------------------------------------------------------------------------------------------------------|
    |------------------------------------------------------------------------------------------------------------|


	|--------------------------------------------10-8------|
	|----------------10-8-------------------8-10-----------|
	|-----------9-10------10-9---------9-10----------------|
	|------9-10----------------10-9-10---------------------|
	|---10-------------------------------------------------|
	|------------------------------------------------------|


e|----0-----0------0-----0-----1-----1--------0----0---0---0--|
B|----1-----1------0-----0-----1-----1--------1----1---1---1--|
G|----2-----2------0-----0-----2-----2--------0----0---0---0--|  3x
D|--------2-------------------------------3-2----0------------|
A|--0------------------2-----------3-----------------3---2----|
E|-------------3p0---------0-1--------------------------------|


e|----0-----0------0-----0-----3-----3-------3-----3---3------|
B|----1-----1------0-----0-----0-----0-------0-----0---0------|
G|----2-----2------0-----0-----0-----0-------0-----0---0------|
D|--------2------------------------0-----0--------------------|
A|--0------------------2-------------------3--2--0------------|
E|-------------3p0---------0-3-----------------------3--------|


e|----0---0--------3---3-------|
B|----1---1--------0---0-------|
G|----2---2--------0---0-------|  10x
D|------------2p0--------------|
A|--0---3----------2-----------|
E|---------------------3-------|
etc...

---------------------------------------------------------------------------
comments
print report bad tab
2 comments total.
0 reply
shane taylor wrote on April 1 2010, 06:28 am

you always get 1 clever tw@t trying to make a simple tune hard....this is bobbins!

0 reply
realsammyteee wrote on August 28 2015, 07:27 am

have fun playing your open chord version which sounds nothing like the song. ta-ta!

I want to post or [tab]
guest
You may want to rate the tab now too:
select rating
Please do not post tabs as comments. Select "correction" instead!