Oops, an error
Loading. Please wait.

Nice And Sleazy bass

14,524 views 24 this week
1 commentread comment
1 2 3 4 5
x 6
add to favorites
×
Save as Personal and add changes to this tab that will be seen only by you. Learn more ›
×
You can save this tab as Personal to edit and correct it or add notes. All changes will be seen only by you. Learn more »
launch autoscroll
font size
0
reset
guitar tuner
backing track
0:00
0:00
edit
Autoscroll
slow
fast
+/-
esc
set tempo
stop
Author
Difficulty
intermediate
This is my first tab so don't complain if its bad just email me for corrections at 
samdapan69@hotmail.co.uk. Thanks
I'm not the biggest fan of The Stranglers but I thought I might as well put this tab up 
seeing it's got quite a nice bass line.
The timing may be a bit out but if you play along with the song it should be all right.
Standard Tuning

 Drum Intro
G|-----------------------------------|-----------------------------------|
D|-----------------------------------|-----------------------------------|
A|-----------------------------------|-----------------------------------|
E|-----------------------------------|-----------------------------------|

Guitar Joins
G|-----------------------------------|-----------------------------------|
D|-----------------------------------|-----------------------------------|
A|-----------------------------------|-----------------------------------|
E|-----------------------------------|-----------------------------------|

Bass Starts
G|-----------------------------------|-----------------------------------|
D|-9--7------------------------------|-9--7------------------------------|
A|-------9--7------------------------|-------9--7------------------------|
E|-------------10---7----5----7------|-------------10---7----5----7------|

G|-----------------------------------|-----------------------------------|
D|-9--7------------------------------|-9--7------------------------------|
A|-------9--7------------------------|-------9--7------------------------|
E|-------------10---7----5----7------|-------------10---7----5----7----7-|

G|-----------------------------------|-----------------------------------|
D|-----------------------------------|-----------------------------------|
A|--5---------7---------9------------|-----------------------------------|
E|-------7---------7---------7----7\2|--------------------------------5--|

G|-----------------------------------|-----------------------------------|
D|-----------------------------------|-----------------------------------|
A|--4---------5---------7------------|-----------------------------------|
E|-------5---------5---------5----5\-|--------------------------------7--|

G|-----------------------------------|-----------------------------------|
D|-----------------------------------|-----------------------------------|
A|--5-------7-------9----------------|--5-------7-------9----------------|
E|------7-------7-------7----7----7--|------7-------7-------7----7----7--|

G|-----------------------------------|-----------------------------------|
D|-----------------------------------|-----------------------------------|
A|--5-------7-------9----------------|--5-------7-------9----------------|
E|------7-------7-------7----7----7--|------7-------7-------7----7----7--|

G|-----------------------------------|-----------------------------------|
D|-----------------------------------|-----------------------------------|
A|--5--------7----5--------------4---|------5---------7------------------|
E|------7--------------5----5--------|-5---------5---------5----5----5---|

G|-----------------------------------|
D|-----------------------------------|
A|-4-------5-------7---5-------------|
E|-----5-------5------------7----7---|


G|-----------------------------------|-----------------------------------|
D|-----------------------------------|-----------------------------------|
A|--5-------7-------7/9--------------|--5-------7-------7/9--------------|
E|------7-------7-------7----7----7--|------7-------7-------7----7----7--|

G|-----------------------------------|-----------------------------------|
D|-----------------------------------|-----------------------------------|
A|------5---------7----5-------------|-4---------5---------7-------------|
E|-7---------7--------------5----5---|------5---------5---------5----3---|

G|-----------------------------------|-----------------------------------|
D|-----------------------------------|-----------------------------------|
A|------2-------------------2--------|-----------2----0------------------|
E|-3---------3----3----3---------3---|-2-------------------3----2-/--7---|

G|-----------------------------------|-----------------------------------|
D|-----------------------------------|-----------------------------------|
A|------5---------7---------9--------|-----------------------------------|
E|-7---------7---------7---------7\2-|-----------------------------------|


G|-----------------------------------|-----------------------------------|
D|-9--7------------------------------|-9--7------------------------------|
A|-------9--7------------------------|-------9--7------------------------|
E|-------------10---7----5----7------|-------------10---7----5----7------|

G|-----------------------------------|-----------------------------------|
D|-9--7------------------------------|-9--7------------------------------|
A|-------9--7------------------------|-------9--7------------------------|
E|-------------10---7----5----7------|-------------10---7----5----7------|

G|-----------------------------------|-----------------------------------|
D|-----------------------------------|-----------------------------------|
A|-----------------------------------|-------------------5---------5-----|
E|5----5----5----5----5----5----5----5----5----5----5---------5---------5|

G|-----------------------------------|------------11-9-7-----------------|
D|----------------------------------7|-9-7-9-7-9---------9-7-9--9-7-9-7-9|
A|----5---------5----4---------9-----|-----------------------------------|
E|---------5--------------7----------|-----------------------------------|

G|-----------------------------------|-----------------------------------|
D|-----------------------------------|-----------------------------------|
A|-----------------------------------|-------------------5---------5-----|
E|5----5----5----5----5----5----5----5----5----5----5---------5---------5|

G|-----------------------------------|-----------------------------------|
D|----------------------------------7|-9-7-9-7-9-------------------------|
A|----5---------5----4---------9-----|-----------------4-5-7-5-7-5-4-----|
E|---------5--------------7----------|-----------7--5----------------5---|

G|-----------------------------------|
D|-----------------------------------|
A|-------5-4-5-4-5---------2--0------|
E|3---3------------5---3--------3--2-|


G|-----------------------------------|
D|-----------------------------------|
A|--5-------7-------9----------------|
E|------7-------7-------7----7----7--| X8


G|-----------------------------------|-----------------------------------|
D|-9--7------------------------------|-9--7------------------------------|
A|-------9--7------------------------|-------9--7------------------------|
E|-------------10---7----5----7------|-------------10---7----5----7------|

G|-----------------------------------|-----------------------------------|
D|-9--7------------------------------|-9--7------------------------------|
A|-------9--7------------------------|-------9--7------------------------|
E|-------------10---7----5----7------|-------------10---7----5----7------|

G|-----------------------------------|-----------------------------------|
D|-----------------------------------|-----------------------------------|
A|-----------------------------------|-------------------5---------5-----|
E|5----5----5----5----5----5----5----5----5----5----5---------5---------5|

G|-----------------------------------|------------11-9-7-----------------|
D|----------------------------------7|-9-7-9-7-9---------9-7-9--9-7-9-7-9|
A|----5---------5----4---------9-----|-----------------------------------|
E|---------5--------------7----------|-----------------------------------|

G|-----------------------------------|-----------------------------------|
D|-----------------------------------|-----------------------------------|
A|-----------------------------------|-------------------5---------5-----|
E|5----5----5----5----5----5----5----5----5----5----5---------5---------5|

G|-----------------------------------|-----------------------------------|
D|----------------------------------7|-9-7-9-7-9-------------------------|
A|----5---------5----4---------9-----|-----------------4-5-7-5-7-5-4-----|
E|---------5--------------7----------|-----------7--5----------------5---|

G|-----------------------------------|
D|-----------------------------------|
A|-------5-4-5-4-5--------2--0-------|
E|3---3------------3---2--------3--2-|


G|-----------------------------------|-----------------------------------|
D|-----------------------------------|-----------------------------------|
A|--5-------7-------7/9--------------|--5-------7-------7/9--------------|
E|------7-------7-------7----7----7--|------7-------7-------7----7----7--|

G|-----------------------------------|-----------------------------------|
D|-----------------------------------|-----------------------------------|
A|--5-------7-------7/9--------------|--5-------7-------7/9--------------|
E|------7-------7-------7----7----7--|------7-------7-------7----7----7--|

G|-----------------------------------|-----------------------------------|
D|-----------------------------------|-----------------------------------|
A|------5---------7----5-------------|-4---------5---------7-------------|
E|-7---------7--------------5----5---|------5---------5---------5----3---|

G|-----------------------------------|-----------------------------------|
D|-----------------------------------|-----------------------------------|
A|------2-------------------2--------|-----------2----0------------------|
E|-3---------3----3----3---------3---|-2-------------------3----2--------|

G|-----------------------------------|-----------------------------------|
D|---------------0-------------------|---------------0-------------------|
A|---2---0---2-------2---0-----------|---2---0---2-------2---0-----------|
E|---------------------------3---2---|---------------------------3---2---|

G|-----------------------------------|-----------------------------------|
D|---------------0-------------------|---------------0-------------------|
A|---2---0---2-------2---0-----------|---2---0---2-------2---0-----------|
E|---------------------------3---2---|---------------------------3---2---|


************************************

| \  Slide down
| /  Slide up

************************************

            
            
Suggest correction
Creating personal tab
Creating personal tab
You can edit any tab online and save it as your Personal.

You can edit, replace or remove any tab part or add personal notes – all changes will be seen only by you.

Personal tabs can be accessed anytime from any device, even offline.
Learn more »
comments
print report bad tab
1 comment total.
0 reply
Frankenstrat1 10 May 14, 2013 07:15 PM

Nice Tab, such a cool bassline in this song

guest
You may want to rate the tab now too:
select rating
Wanna post a correction for this tab? Suggest correction