Oops, an error
Loading. Please wait.

No More Heroes tab

version 1
version 1

Whole song

Interactive

14,211 views 24 this week
2 commentsread comments
1 2 3 4 5
x 5
add to favorites
×
Save as Personal and add changes to this tab that will be seen only by you. Learn more ›
×
You can save this tab as Personal to edit and correct it or add notes. All changes will be seen only by you. Learn more »
launch autoscroll
font size
0
reset
how to read this tab
guitar tuner
backing track
0:00
0:00
edit
Autoscroll
slow
fast
+/-
esc
set tempo
stop
Author
Difficulty
-----------------------------------------------------------------------------
                             No More Heroes - Stranglers
-----------------------------------------------------------------------------

Album: No More Heroes

Standard tuning: EADGBe

Intro, Verses, Bridge, Chorus and Solo

'What ever happened to Leon Trotsky?' etc
e|--------------------------------|
B|--------------------------------|
G|-------5-5----------------------|
D|--5-5--5-5--33--5-5-------------|
A|--5-5--3-3--33--5-5-------------|
E|--3-3-------11--3-3-------------|

'What ever happened to your heroes?' etc
e|----------------------------------------------------|
B|----------------------------------------------------|
G|-33333333-55555555----------------------------------| Repeat Twice
D|-33333333-55555555----------------------------------|
A|-11111111-33333333-----1---------------1------------|
E|--------------------3-----3--1--3---3-----3--1--3---|

'What ever happened to all of the heroes?' etc
e|--------------------------------|
B|--------------------------------|
G|-------5-5----------------------|
D|--5-5--5-5--33--5-5-------------|
A|--5-5--3-3--33--5-5-------------|
E|--3-3-------11--3-3-------------|

'What ever happened to your heroes?' etc
e|----------------------------------------------------|
B|----------------------------------------------------|
G|-33333333-55555555----------------------------------| Repeat
D|-33333333-55555555----------------------------------|
A|-11111111-33333333-----1---------------1------------|
E|--------------------3-----3--1--3---3-----3--1--3---|

'No more heroes anymore' etc
e|------------------------------|
B|------------------------------|
G|------5-5---------------------| Repeat
D|-5-5--5-5--55--3--------------|
A|-5-5--3-3--55--3--------------|
E|-3-3-------33--1--------------|

Solo! I've not been able to tab all of it but for those interested in doing so its on 
Gm penatatonic scale :)

e|-------------------------------------------------------------13------|
B|-----------Pick very fast------------------------------13-15----15---|
G|-121212121212121212-1414141414141414-1515151515151515----------------|
D|---------------------------------------------------------------------|
A|---------------------------------------------------------------------|
E|---------------------------------------------------------------------|

e|-13-15-13------------------------------------------------------------|
B|----------15-13----------13b15r13-----------13b15r13-----------------|
G|----------------15-12-15----------15-12-15-----------15-12-----------|
D|-----------------------------------------------------------15-12-----|
A|---------------------------------------------------------------------|
E|---------------------------------------------------------------------|

            
            
Suggest correction
Creating personal tab
Creating personal tab
You can edit any tab online and save it as your Personal.

You can edit, replace or remove any tab part or add personal notes – all changes will be seen only by you.

Personal tabs can be accessed anytime from any device, even offline.
Learn more »
comments
print report bad tab
2 comments total.
0 reply
darrenhodge 10 Apr 14, 2010 10:44 AM

goes back to g then f

0 reply
toffee787 10 Apr 09, 2017 02:53 PM

great tab the keyboard riff on guitar would be nice though.

guest
You may want to rate the tab now too:
select rating
Wanna post a correction for this tab? Suggest correction