Oops, an error
Loading. Please wait.

Something Better Change bass

3,469 views 18 this week
no commentswrite comment
1 2 3 4 5
x 3
add to favorites
×
Save as Personal and add changes to this tab that will be seen only by you. Learn more ›
×
You can save this tab as Personal to edit and correct it or add notes. All changes will be seen only by you. Learn more »
launch autoscroll
font size
0
reset
guitar tuner
edit
Autoscroll
slow
fast
+/-
esc
set tempo
stop
Author
I am pretty confident it is correct but then again I am pretty confident there are a few 
mistakes with the odd wrong notes and the amount of repeats but i'm sure you can figure 
it out. Email Me at samdapan69@hotmail.co.uk for corrections and other questions

Artist: The Stranglers
Song: Something Better Change
Album: No More Heroes
Year: 1977


Synth Joins                                                       Bass Starts
G|--------------------------------------------------------------------------|
D|--------------------------------------------------------------------------|
A|--------------------------------------------------------------------------|
E|-----------------------------------------------------------------------7\-|


G|---------------------------------------------|
D|------------------------1---1---1----2-1-----|
A|-----------------------------------------2-1-|
E|--2--2--2--2---2--2--2-----------------------| X6

Link X3                            On The Fourth Time Play This
G|------------------------------||------------------------------|
D|--2---2---1---1---------------||------------------------------|
A|------------------4-----------||-4-4-4-4-4-4-4-2--------------|
E|--------------------2-2--2----||--------------------7\--------|

G|---------------------------------------------|
D|--------------------------1--1--1--2-1-------|
A|---------------------------------------2-1---|
E|--2--2--2--2---2--2--2-----------------------| X8

Link X3                            On The Fourth Time Play This
G|------------------------------||------------------------------|
D|--2---2---1---1---------------||------------------------------|
A|-----------------4------------||-4-4-4-4-4-4-4-2--------------|
E|--------------------2-2--2----||--------------------7\--------|


G|---------------------------------------------|
D|----------------------------1--1--1--2-1-----|
A|-----------------------------------------2-1-|
E|--2--2--2--2---2--2--2-----------------------| X11

G|--------------------------------------------------|
D|--------------------------------------------------|
A|--------------------------------------------------|
E|--2--2--2--2--2--2--2--2/7--7--7--7--7--7--7--7--7| X6

G|-----------------------------------------------------|
D|-----------------------------------------------------|
A|-----------------------------------------------------|
E|--2--2--2--2--2--2--2--2/7--7--7--7/1212121212121212\| X5

G|--------------------------------------------------|
D|--------------------------------------------------|
A|--------------------------------------------------|
E|--2--2--2--2--2--2--2--2/7--7--7--7--7--7--7--7--7| X8

G|--------------|
D|--------------|
A|--------------|
E|--2--0----3--2| X4

            
            
Suggest correction
Creating personal tab
Creating personal tab
You can edit any tab online and save it as your Personal.

You can edit, replace or remove any tab part or add personal notes – all changes will be seen only by you.

Personal tabs can be accessed anytime from any device, even offline.
Learn more »
Give kudos to tab author, rate the tab!
1 2 3 4 5
comments
print report bad tab
guest
You may want to rate the tab now too:
select rating
Wanna post a correction for this tab? Suggest correction