Oops, an error
Loading. Please wait.

The Escapist Bass Tab

1,845 views 1 this week
no commentswrite comment
1 2 3 4 5
please rate
add to favorites
launch autoscroll
font size
0
reset
guitar tuner
Tab Pro tools
  • play this tab
  • loop segment
  • change instrument
  • show fretboard
  • metronome
×
Best way to learn
"The Escapist"
Autoscroll
slow
fast
+/-
esc
set tempo
stop
Contributor
Difficulty
intermediate
-----------------------------------------------------------------------------
			The Streets - The Escapist
-----------------------------------------------------------------------------

Tabbed By : Extra Blood
e-mail: Lenda@ofir.dk

Tuning: Standard

=============================================================================

This is a pretty simple song with only
a few variations. Which I've listed
beneath the main riff.
 
Main Riff:

    h       h         w                
G-|-----------------|-----------------|
D-|-----------------|-----------------|
A-|---------5-------|-----------------|
E-|-7---------------|-3---------------|

                      h       h
G-|-----------------|-----------------|
D-|-----------------|-----------------|
A-|--R---E---S---T--|-----------------|
E-|-----------------|-7-------5-------|

    w
G-|-----------------|-----------------|
D-|-----------------|-----------------|
A-|-----------------|--R---E---S---T--|
E-|-3---------------|-----------------|

Variation riffs:

00:34, 01:38, 02:03, 02:55, 03:46

    h       q  se     w                   
G-|-----------------|-----------------|
D-|------------7----|-----------------|
A-|-------------5/--|-----------------|
E-|-7-------5-------|-3---------------|

01:06, 03:14

    h       h         w                           e e s
G-|-----------------|-----------------|-----------------|
D-|-----------------|-----------------|-----------------|
A-|---------5-------|-----------------|-R-E-S-T---------|
E-|-7---------------|-3---------------|-----------5-x-6-|

01:52, 03:33

    h       h         w                           e e e  
G-|-----------------|-----------------|-----------------|
D-|-----------------|-----------------|-----------------|
A-|-----------------|-----------------|-R-E-S-T-------5-|
E-|-7-------5-------|-3---------------|-----------5-7---|

01:57, 03:40

    h        e+s e    w                             e e   
G-|-----------------|-----------------|-----------------|
D-|--------------7/-|-----------------|-----------------|
A-|----------5------|-----------------|--R--E--S--T-----|
E-|-7---------------|-3---------------|-------------5-6-|

02:42, 03:59
    
    h       h         w                             e e 
G-|-----------------|-----------------|-----------------|
D-|-----------------|-----------------|-----------------|
A-|-----------------|-----------------|--R--E--S--T-----|
E-|-7-------5-------|-3---------------|-------------5-6-|

04:12

    h       q+e  e    w                      
G-|-----------------|-----------------|
D-|--------------7/-|-----------------|
A-|-----------------|-----------------|
E-|-7-------5-------|-3---------------|

And that's it!

=============================================================================
comments
We did not receive enough feedback on this tab! Please rate:
print report bad tab
1 2 3 4 5
I want to post or [tab]
guest
You may want to rate the tab now too:
select rating
Please do not post tabs as comments. Select "correction" instead!