Oops, an error
Loading. Please wait.

12 51 Bass Tab

version 1
version 1
17,931 views 9 this week
4 commentsread comments
1 2 3 4 5
accurate
x 13
add to favorites
launch autoscroll
font size
0
reset
guitar tuner
Tab Pro tools
  • play this tab
  • loop segment
  • change instrument
  • show fretboard
  • metronome
×
Best way to learn
"12 51"
Autoscroll
slow
fast
+/-
esc
set tempo
stop
The STROKES - 12:51

intro:

A:7-7-7-7-7-7-7-7-7-7-7-7-7-7-7-7-7-7-     until drums come in, 

then:
g:----------------------------------
d:-7777777777777777-----------------      repeat once.
a:-----------------7777777777777777-
e:----------------------------------

verse 1:
g:---------------------------------------------------------------
d:---------------------------------------------------------------
a:-7777777777777777-----------------999999999999999--------------
e:-----------------55555555555555555---------------7777777777777-

break:
g:--------------------   repeat 4 times
d:--------------------
a:-777777777----------
e:----------9999-7777-

then do the verse and the break again.

chorus:

g:-----------------------------------
d:-7777777777777777------------------   repeat until the chorous finishes
a:-----------------77777777777777777-
e:-----------------------------------

then do the verse twice 

then the break again

outro:

a-7777777777777-

i'm pretty sure its all correct,
enjoy it,its a great song and great album.

Tabbed by JAMES MATTOCK.
comments
print report bad tab
4 comments total. Showing first comments.
0 reply
realfastman49 wrote on November 28 2003, 12:00 am

the intro goes like this
|---------------------------------|
|-2-2-2-2-2-2-2-2-2-2-2-2-2-2-2-2-|(x3)
|---------------------------------|
|---------------------------------|

|---------------------------------|
|---------2-(x16)---------2-(x16)-|
|-3-(x16)---------3-(x16)---------|
|---------------------------------|

the four note pogression in the verse is this
|-----------------|
|-----------------|
|-------------2---|
|-0---5---2-------|

0 reply
Palos wrote on January 12 2006, 03:50 pm

its the same thing you idiot... ¬¬

0 reply
Ginga91 wrote on March 20 2006, 09:01 am

hi guys im in my ict lesson, nd yer there both the same?!

I want to post or [tab]
guest
You may want to rate the tab now too:
select rating
Please do not post tabs as comments. Select "correction" instead!