Oops, an error
Loading. Please wait.
24,392 views 39 this week
1 commentread comment
1 2 3 4 5
x 7
add to favorites
×
Save as Personal and add changes to this tab that will be seen only by you. Learn more ›
×
You can save this tab as Personal to edit and correct it or add notes. All changes will be seen only by you. Learn more »
launch autoscroll
font size
0
reset
how to read this tab
guitar tuner
edit
Autoscroll
slow
fast
+/-
esc
set tempo
stop
Author
The Strokes - 12:51

Tabbed by: Miranda Harding
Email:miranda.harding@btopenworld.com

Tuning: Standard

RHYTHM (Guitar 1)
[Intro Pt. 1]   
e|--12-|-----|
B|--12-|--9--|
G|--9--|--9--|
D|-----|--9--|
A|-----|--7--|
E|-----|-----|

[Intro Pt. 2] 
e|--------------|-------------|
B|----10--------|--9----------|
G|-.---9--x-16--|--9--x-16--.-|
D|-.--10--------|--9--------.-|
A|--------------|-------------|
E|--------------|-------------|(x2)

[Verse]
e|---------|---------|---------|---------|
B|---------|---------|---------|---------|
G|--1------|---------|---------|---------|
D|--2--x8--|--7------|--4------|--9------|
A|--2------|--7--x8--|--4--x8--|--9--x8--|
E|--0------|--5------|--2------|--7------|(x2)

[Interlude]
e|---------|----------|---------|
B|---------|----------|---------|
G|--9------|---9------|--8------|
D|--9--x8--|--11--x4--|--9--x4--|
A|--7------|--11------|--9------|
E|--0------|---9------|--7------|(x4)

REPEAT VERSE
REPEAT INTERLUDE
REPEAT INTRO PT.2
REPEAT VERSE
REPEAT INTERLUDE



LEAD (GUITAR 2)
[Verse]
e|--------------------------------------------------|
B|--9-----------9-----------------------------------|
G|----9--11--9------11---9---11--8--9--8--11--9--8--|
D|--------------------------------------------------|
A|--------------------------------------------------|
E|--------------------------------------------------|(x2)

[Interlude]
e|---------------------------------------------------------------|
B|--12-------------12-------------12-----------------------------|
G|-----13--11--13-----13--11--13------13--11--13--9--13--11--13--|
D|---------------------------------------------------------------|
A|---------------------------------------------------------------|
E|---------------------------------------------------------------|(x2)

REPEAT VERSE
REPEAT INTERLUDE

[Chorus]
e|------------------|--12--------------|
B|--13--15--12--13--|------15--13--12--|
G|------------------|------------------|
D|------------------|------------------|
A|------------------|------------------|
E|------------------|------------------|(x2)

e|--12-----------------------------------------|
B|----------15--13--12----12----------15---12--|
G|------14------------------------14-----------|
D|----------------------------14---------------|
A|---------------------------------------------|
E|---------------------------------------------|

e|------------------|--12--------------------------|
B|--13--15--12--13--|------15--13--12--13--12--13--|
G|------------------|------------------------------|
D|------------------|------------------------------|
A|------------------|------------------------------|
E|------------------|------------------------------|

REPEAT VERSE
REPEAT INTERLUDE



************************************

| x  Dead note
| .  reprise

************************************

            
            
Suggest correction
Creating personal tab
Creating personal tab
You can edit any tab online and save it as your Personal.

You can edit, replace or remove any tab part or add personal notes – all changes will be seen only by you.

Personal tabs can be accessed anytime from any device, even offline.
Learn more »
comments
print report bad tab
1 comment total.
0 reply
q.o.t.s.a.kid 10 Oct 01, 2007 10:17 AM

amazing!!! 5 stars
im giving you 5 stars for the verse and interlude!!

guest
You may want to rate the tab now too:
select rating
Wanna post a correction for this tab? Suggest correction