Oops, an error
Loading. Please wait.

12 51 Tab

version 5
3,298 views 1 this week
no commentswrite comment
1 2 3 4 5
worth learning
x 4
add to favorites
launch autoscroll
font size
0
reset
how to read this tab
guitar tuner
Tab Pro tools
  • play this tab
  • loop segment
  • change instrument
  • show fretboard
  • metronome
×
Best way to learn
"12 51"
Autoscroll
slow
fast
+/-
esc
set tempo
stop
Contributor
==============|===========|
The Strokes   |Nicks Part |
12:51         |===========|==============================|
Room On Fire  |Tabbed by Andrew Gyorkos November 19th '03|
==============|==========================================|================|
This is a very easy song with 5 parts to it. Remembering their order is the
hardest part to this song.
=================================|========================================|
Standard E, A, D, G, B, E tuning.|
======|==========================|
Part 1|
======|

E-|---------------------------------------------------------------|
B-|-9-5-7-5-9-5-7---7-4-5-4-7-5-4---9-5-7-5-9-7-5---7-4-5-4-7-5-4-|
G-|---------------------------------------------------------------|
D-|---------------------------------------------------------------|
A-|---------------------------------------------------------------|
E-|---------------------------------------------------------------|

======|
Part 2|
======|

E-|--------------------------------------------------------------------|
B-|-12-9-7-9--12-9-7-9--12-9-7-9--5-9-7-9--12-9-7-9--12-9-7-9-12-9-7-9-|
G-|--------------------------------------------------------------------|
D-|--------------------------------------------------------------------|
A-|--------------------------------------------------------------------|
E-|--------------------------------------------------------------------|

E-|---------|
B-|-5-9-7-9-|
G-|---------|
D-|---------|
A-|---------|
E-|---------|

======|
Part 3|
======|

E-|----------------------------------------------------------------|
B-|-9-5-7-5-9-7-5---7-4-5-4-7-5-4---9-5-7-12-10-9----7-4-5-4-7-5-4-|
G-|----------------------------------------------------------------|
D-|----------------------------------------------------------------|
A-|----------------------------------------------------------------|
E-|----------------------------------------------------------------|

======|
Part 4|
======|

E-|-------------------------------------------------------|
B-|-13-15-12-13---17-15---------13-15-12-13---17-15-------|
G-|---------------------17-16-----------------------17-16-|
D-|-------------------------------------------------------|
A-|-------------------------------------------------------|
E-|-------------------------------------------------------|

E-|----------------------------------------------------------------------|
B-|-17----13-15-12-------15-12---17-15---------13-15-12-13---17-15-------|
G-|-------------------14---------------17-16-----------------------17-16~|
D-|----14----------14----------------------------------------------------|
A-|----------------------------------------------------------------------|
E-|----------------------------------------------------------------------|

======|
Part 5|
======|

E-|-------------------------------------------------------------------|
B-|-9-5-7-5-12-10-9---7-4-5-4-7-5-4---9-5-7-5-12-10-9---7-4-5-4-7-5-4-|
G-|-------------------------------------------------------------------|
D-|-------------------------------------------------------------------|
A-|-------------------------------------------------------------------|
E-|-------------------------------------------------------------------|


======|
Timing|
======|

Don't play for the first 22 seconds

0:23 to 0:36 - Play part 1 once with verse 1 vocals.

0:36 to 0:49 - Play part 2 once with no vocals.

0:50 to 1:02 - Play part 3 once with verse 2 vocals.

1:03 to 1:15 - Play part 2 once with no vocals.

1:16 to 1:42 - Play part 4 once with verse 3 vocals.

1:42 to 1:56 - Play part 1 once with verse 4 vocals.

1:56 to 2:08 - Play part 5 once with verse 5 vocals.

2:08 to 2:22 - Play part 2 once with no vocals.

===========================================================================|
That's it for Nicks part. It's easy to figure out the timing after hearing the
song a few times. Sorry I don't have the lyrics though. You're on your own for
that. But I can tell you that verse 1 and 4 & 2 and 5 don't have much variation.
Please email me at abgyorkos@rogers.com to let me know if this was useful. Enjoy.
===========================================================================|
comments
print report bad tab
I want to post or [tab]
guest
You may want to rate the tab now too:
select rating
Please do not post tabs as comments. Select "correction" instead!