Oops, an error
Loading. Please wait.

12 51 Bass Tab

version 6
version 6
2,580 views 15 this week
no commentswrite comment
1 2 3 4 5
excellent!
x 5
add to favorites
launch autoscroll
font size
0
reset
guitar tuner
Tab Pro tools
  • play this tab
  • loop segment
  • change instrument
  • show fretboard
  • metronome
×
Best way to learn
"12 51"
Autoscroll
slow
fast
+/-
esc
set tempo
stop
Contributor
Difficulty
novice
12:51 BAss tab
The Strokes



-Intro-


G|-----------------------------------------|
D|-----------------------------------------|
A|-7-7-7-7-7-7-7-7-7-7-7-7-7-7-7-7-7-7-7-7-|(x3)
E|-----------------------------------------|

G|------------------------------------------|
D|------------------------------------------|
A|------------------------------------------|
E|-8-8-8-8-8-8-8-8-8-8-8-8-8-8-8-8-8-8-8-8-8|

G|-----------------------------------------|
D|-----------------------------------------|
A|-7-7-7-7-7-7-7-7-7-7-7-7-7-7-7-7-7-7-7-7-|
E|-----------------------------------------|

G|------------------------------------------|
D|------------------------------------------|
A|------------------------------------------|
E|-8-8-8-8-8-8-8-8-8-8-8-8-8-8-8-8-8-8-8-8-8|

G|-----------------------------------------|
D|-----------------------------------------|
A|-7-7-7-7-7-7-7-7-7-7-7-7-7-7-7-7-7-7-7-7-|
E|-----------------------------------------|

-Verse-

G|--------------------|---------------------|
D|-2-2-2-2-2-2-2-2-2-2|---------------------|
A|--------------------|-0-0-0-0-0-0-0-0-0-0-|
E|--------------------|---------------------|
                                              (x2)
G|--------------------|---------------------|
D|-4-4-4-4-4-4-4-4-4-4|---------------------|
A|--------------------|-2-2-2-2-2-2-2-2-2-2-|
E|--------------------|---------------------|

-Pre Chorus-

G|--------------------|----------------------|
D|--------------------|----------------------|
A|-7-7-7-7-7-7-7-7-7-7|----------------------|  (x4)
E|--------------------|-9-9-9-9-9-7-7-7-7-7--|

-Verse 2-

G|--------------------|---------------------|
D|-2-2-2-2-2-2-2-2-2-2|---------------------|
A|--------------------|-0-0-0-0-0-0-0-0-0-0-|
E|--------------------|---------------------|
                                              (x2)
G|--------------------|---------------------|
D|-4-4-4-4-4-4-4-4-4-4|---------------------|
A|--------------------|-2-2-2-2-2-2-2-2-2-2-|
E|--------------------|---------------------|

-Pre Chorus-

G|--------------------|----------------------|
D|--------------------|----------------------|
A|-7-7-7-7-7-7-7-7-7-7|----------------------|  (x4)
E|--------------------|-9-9-9-9-9-7-7-7-7-7--|


-Chorus-

G|------------------------------------------|
D|------------------------------------------|
A|------------------------------------------|
E|-8-8-8-8-8-8-8-8-8-8-8-8-8-8-8-8-8-8-8-8-8|

G|-----------------------------------------|
D|-----------------------------------------|
A|-7-7-7-7-7-7-7-7-7-7-7-7-7-7-7-7-7-7-7-7-|
E|-----------------------------------------|

G|------------------------------------------|
D|------------------------------------------|
A|------------------------------------------|
E|-8-8-8-8-8-8-8-8-8-8-8-8-8-8-8-8-8-8-8-8-8|

G|-----------------------------------------|
D|-----------------------------------------|
A|-7-7-7-7-7-7-7-7-7-7-7-7-7-7-7-7-7-7-7-7-|
E|-----------------------------------------|

G|------------------------------------------|
D|------------------------------------------|
A|------------------------------------------|
E|-8-8-8-8-8-8-8-8-8-8-8-8-8-8-8-8-8-8-8-8-8|

G|-----------------------------------------|
D|-----------------------------------------|
A|-7-7-7-7-7-7-7-7-7-7-7-7-7-7-7-7-7-7-7-7-|
E|-----------------------------------------|

G|------------------------------------------|
D|------------------------------------------|
A|------------------------------------------|
E|-8-8-8-8-8-8-8-8-8-8-8-8-8-8-8-8-8-8-8-8-8|

G|-----------------------------------------|
D|-----------------------------------------|
A|-7-7-7-7-7-7-7-7-7-7-7-7-7-7-7-7-7-7-7-7-|
E|-----------------------------------------|

-Verse 3-

G|--------------------|---------------------|
D|-2-2-2-2-2-2-2-2-2-2|---------------------|
A|--------------------|-0-0-0-0-0-0-0-0-0-0-|
E|--------------------|---------------------|
                                              (x4)
G|--------------------|---------------------|
D|-4-4-4-4-4-4-4-4-4-4|---------------------|
A|--------------------|-2-2-2-2-2-2-2-2-2-2-|
E|--------------------|---------------------|

-Pre Chorus-

G|--------------------|----------------------|
D|--------------------|----------------------|
A|-7-7-7-7-7-7-7-7-7-7|----------------------|  (x4)
E|--------------------|-9-9-9-9-9-7-7-7-7-7--|

END

G|--------------------|---------------------|
D|--------------------|---------------------|
A|-7-7-7-7-7-7-7-7-7-7|---------------------|
E|--------------------|---------------------|

ENJOY!!



of barionyx from Argentina .. where we still rock
comments
print report bad tab
I want to post or [tab]
guest
You may want to rate the tab now too:
select rating
Please do not post tabs as comments. Select "correction" instead!