Oops, an error
Loading. Please wait.

15 Minutes Bass Tab

version 1
version 1

Whole song

Interactive

2,105 views 1 this week
no commentswrite comment
1 2 3 4 5
excellent!
x 3
add to favorites
launch autoscroll
font size
0
reset
guitar tuner
Tab Pro tools
  • play this tab
  • loop segment
  • change instrument
  • show fretboard
  • metronome
×
Best way to learn
"15 Minutes"
Autoscroll
slow
fast
+/-
esc
set tempo
stop
Difficulty
novice
15 Minutes
The Strokes
Nikolai Fraiture

Intro
G--------------|
D----------7~--|
A-5~----5~-----|
E----5~--------|

Verse:
“It was all just a dream…”     “…was it real?..”.

Riff 1
G-----------------------|---------------------|---------------|
D----7~---------7~---7~-|--5~-4-2------5-4-2--|---------------|
A-5~---------4~---4~----|-----------5---------|--5~----5~-----|
E------7-\-3------------|---------------------|-----5~----5~--|X2
(hit the first note for the second measure on ‘real?’ and then the following notes will 
on ‘It-was-real.’.)

‘Everybody’s so inviting...’
G---------------------------------------|
D---------------------------------------|
A-7--7-7-7-7--7-7-7-7--7-7-7-7--7-7-7-7-|
E---------------------------------------|
                                           Riff 2
G----------------------------------------|
A----------------------------------------|
D----------------------------------------|
E-5--5-5-5-5--5-5-5-5--5-5-5-5--5-5-5-5--|

Riff 1 X2

(at the end of the solo, play along with the guitar)
G-----------------------------|
D-5-5-4-4---------------------|
A---------7-5-5-5-5-5-5-5-5-5-|
E-----------------------------|

New Verse
‘Can i go ? can i play ? can i watch ?...’
G-----------------------------------------------------------------|
D-5-5-5-5-5-5-5-5-------------------------------------------------|
A-----------------7-7-7-7-7-7-7-7-5-5-5-5-5-5-5-5-5-5-5-5-5-5-5-5-|
E-----------------------------------------------------------------|
                                                                   Riff 3
G-----------------------------------------------------------------|
D-----------------------------------------------------------------|
A-8-8-8-8-8-8-8-8-3-3-3-3-3-3-3-3---------------------------------|
E---------------------------------3-3-3-3-3-3-3-3-3-3-3-3-3-3-3-3-|X2

‘Everybody at the Party...’
G-----------------------------------------------------------------|
D-7-7-7-7-7-7-7-7-7-7-7-7-7-7-7-7-7-------------------------------|
A-----------------------------------5-5-5-5-5-5-5-5-5-5-5-5-5-5-5-| Riff 4
E-----------------------------------------------------------------|X3

riff 3 X2




Outro
G----------------------------------------------------------------------|
D------------3(16)----------------------------------2(16)--------------|
A------3(16)------------6(16)-------4(16)-----2(16)-------------5(16)--|
E-3(16)-----------6(16)-------4(16)------2(16)------------5(16)--------|


‘Twelve major chords’
G------------------------------------------------------------------------|
D------------------------------------------------------------------------|
A------------------------------------------------------------------------|
E-3-3-3-3-3-3-3-3-3-3-3-3-3-3-3-3-3-3-3-3-3-3-3-3-3-3-3-3-3-3-3-3-3-3-3~-|
comments
We did not receive enough feedback on this tab! Please rate:
print report bad tab
1 2 3 4 5
I want to post or [tab]
guest
You may want to rate the tab now too:
select rating
Please do not post tabs as comments. Select "correction" instead!