Oops, an error
Loading. Please wait.

50 50 Tab

version 4
version 4

Whole song

Interactive

2,138 views 3 this week
no commentswrite comment
1 2 3 4 5
please rate
add to favorites
launch autoscroll
font size
0
reset
how to read this tab
guitar tuner
Tab Pro tools
  • play this tab
  • loop segment
  • change instrument
  • show fretboard
  • metronome
×
Best way to learn
"50 50"
Autoscroll
slow
fast
+/-
esc
set tempo
stop
Contributor
the strokes are finaly back

im not sure about the hammer on`s and pull off`s but you have to play real fast without em

INTRO

guitar1

  C#
 --9----------------------------|
 --9----------------------------|
 --10---------------------------|
 --11---------------------------|
 --11---------------------------|
 --9----------------------------|

guitar2

 -------------------------------------|
 -------------------------------------|
 -------------------------------------|
 ----------11--------9-11-9-----------|(...)
 -------------9(h)11---------11(p)9---|
 -(4/9)--9--------------------------9-|


 -------------------------------------|
 -------------------------------------|
 -------------------------------------|
 ---11------9-------------------------|(...)
 ------9h11---------------------------|
 -9-----------------------------------|



 VERSE

 guitar1

 --9------4-----------------------|
 --9------4-----------------------|
 --10-----5-----10b---------------|
 --11-----6-----------------------|
 --11-----6-----------------------|
 ---------------------------------|

 guitar2

 --------------------------------------------------|
 --------------------------------------------------|
 -----6--4-------6-6/8-6-----6-------4-6-4---------|
 ---------6-4------------------4(h)6-------6(p)4---|
 --------------4-----------------------------------|
 --4----------------------2------------------------|

Why's she telling me the story of her life?
All the things you wanna kill will give you spite
And if you've taken all the prisoners inside
As they're doling out their wisdom in the fire

I can take as long as without looking by
Why's she telling me the story of her life
And if you've taken all the prisoners inside
As they've thrown all their wisdom in the fire

 CHORUS

-------------------
-------------------
------11---6---14--
--6---11---6-- 14--
--6---9----4---12--
--4----------------

I will say!
I will say don't judge me!
I will say!
I will say don't judge me!



I wait on a darkened highway!

git1&2

-4---7---|
-4---7---|
-5---8---|
-6---9---|
-6---9---|
-4---7---|

ends with C#
comments
We did not receive enough feedback on this tab! Please rate:
print report bad tab
1 2 3 4 5
I want to post or [tab]
guest
You may want to rate the tab now too:
select rating
Please do not post tabs as comments. Select "correction" instead!