Oops, an error
Loading. Please wait.

80S Comedown Machine tab

version 2
version 2

Whole song

Interactive

370 views 9 this week
no commentswrite comment
1 2 3 4 5
2 more votes to show rating
add to favorites
×
Save as Personal and add changes to this tab that will be seen only by you. Learn more ›
×
You can save this tab as Personal to edit and correct it or add notes. All changes will be seen only by you. Learn more »
launch autoscroll
font size
0
reset
how to read this tab
guitar tuner
backing track
0:00
0:00
edit
Autoscroll
slow
fast
+/-
esc
set tempo
stop
Difficulty
intermediate
[Intro]

* Natural harmonic
With violin effect and reverb
        *
e|--12------14---|
B|--13--12--14---|
G|--12--12--12---|
D|---------------|
A|---------------|
E|---------------|


[Verse]

e|--------------------------------------------------------------------------------------------------|\
B|-13----------13----------12----------12----------13----------13----------12----------12-----------| \
G|----12----12----12----12----12----12----12----12----12----12----12----12----12----12----12----12--|  \
D|-------14----------14----------14----------14----------14----------14----------14----------14-----|   \
A|--------------------------------------------------------------------------------------------------|    \
E|--------------------------------------------------------------------------------------------------|     |
                                                                                                        (x3)
e|--------------------------------------------------------------------------------------------------|     |
B|--------------------------------------------------------------------------------------------------|    /
G|-14----------14----------16----------16----------14----------14----------16----------16-----------|   /
D|----15----15----15----15----15----15----15----15----15----15----15----15----15----15----15---15---|  /
A|-------17----------17----------17----------17----------17----------17----------17----------17-----| /
E|--------------------------------------------------------------------------------------------------|/

e|--------------------------------------------------------------------------------------------------|
B|-13----------13----------12----------12----------13----------13----------12----------12-----------|
G|----12----12----12----12----12----12----12----12----12----12----12----12----12----12----12----12--|
D|-------14----------14----------14----------14----------14----------14----------14----------14-----|
A|--------------------------------------------------------------------------------------------------|
E|--------------------------------------------------------------------------------------------------|

e|--------------------------------------------------------------------------------------------------|
B|-------------------------------------------------13----------13----------15----------15-----------|
G|-14----------14----------16----------16-----------------------------------------------------------|
D|----15----15----15----15----15----15----15----15----15----15----15----15----15----15----15---15---|
A|-------17----------17----------17----------17----------17----------17----------17----------17-----|
E|--------------------------------------------------------------------------------------------------|

e|--------------------------------------------------------------------------------------------------|
B|-17----------17----------12----------12----------13----------13----------12----------12-----------|
G|----12----12----12----12----12----12----12----12----12----12----12----12----12----12----12----12--|
D|-------14----------14----------14----------14----------14----------14----------14----------14-----|
A|--------------------------------------------------------------------------------------------------|
E|--------------------------------------------------------------------------------------------------|

e|--------------------------------------------------------------------------------------------------|
B|--------------------------------------------------------------------------------------------------|
G|-14----------14----------16----------16----------14----------14----------16----------16-----------|
D|----15----15----15----15----15----15----15----15----15----15----15----15----15----15----15---15---|
A|-------17----------17----------17----------17----------17----------17----------17----------17-----|
E|--------------------------------------------------------------------------------------------------|

e|--------------------------------------------------------------------------------------------------|
B|-13----------13----------12----------12----------13----------13----------12----------12-----------|
G|----12----12----12----12----12----12----12----12----12----12----12----12----12----12----12----12--|
D|-------14----------14----------14----------14----------14----------14----------14----------14-----|
A|--------------------------------------------------------------------------------------------------|
E|--------------------------------------------------------------------------------------------------|

e|--------------------------------------------------------------------------------------------------|
B|-------------------------------------------------13----------13----------15----------15-----------|
G|-14----------14----------16----------16-----------------------------------------------------------|
D|----15----15----15----15----15----15----15----15----15----15----15----15----15----15----15---15---|
A|-------17----------17----------17----------17----------17----------17----------17----------17-----|
E|--------------------------------------------------------------------------------------------------|

e|--------------------------------------------------------------------------------------------------|
B|-17----------17----------17----------17----------17----------17----------17----------17-----------|
G|----12----12----12----12----12----12----12----12----12----12----12----12----12----12----12----12--|
D|-------14----------14----------14----------14----------14----------14----------14----------14-----|
A|--------------------------------------------------------------------------------------------------|
E|--------------------------------------------------------------------------------------------------|


[Chorus] phaser effect
    
    N        N
e|--------------------|
B|--------------------|
G|--------------------|
D|--5--------7--------|
A|--5--------7--------|
E|--3--------5--------|(x2)


[Verse]

e|--------------------------------------------------------------------------------------------------|\
B|-13----------13----------12----------12----------13----------13----------12----------12-----------| \
G|----12----12----12----12----12----12----12----12----12----12----12----12----12----12----12----12--|  \
D|-------14----------14----------14----------14----------14----------14----------14----------14-----|   \
A|--------------------------------------------------------------------------------------------------|    \
E|--------------------------------------------------------------------------------------------------|     |
                                                                                                        (x3)
e|--------------------------------------------------------------------------------------------------|     |
B|--------------------------------------------------------------------------------------------------|    /
G|-14----------14----------16----------16----------14----------14----------16----------16-----------|   /
D|----15----15----15----15----15----15----15----15----15----15----15----15----15----15----15---15---|  /
A|-------17----------17----------17----------17----------17----------17----------17----------17-----| /
E|--------------------------------------------------------------------------------------------------|/


e|--------------------------------------------------------------------------------------------------|
B|-13----------13----------12----------12----------13----------13----------12----------12-----------|
G|----12----12----12----12----12----12----12----12----12----12----12----12----12----12----12----12--|
D|-------14----------14----------14----------14----------14----------14----------14----------14-----|
A|--------------------------------------------------------------------------------------------------|
E|--------------------------------------------------------------------------------------------------|

e|--------------------------------------------------------------------------------------------------|
B|-------------------------------------------------13----------13----------15----------15-----------|
G|-14----------14----------16----------16-----------------------------------------------------------|
D|----15----15----15----15----15----15----15----15----15----15----15----15----15----15----15---15---|
A|-------17----------17----------17----------17----------17----------17----------17----------17-----|
E|--------------------------------------------------------------------------------------------------|

[Chorus] 

phaser effect
    
    N        N
e|--------------------|
B|--------------------|
G|--------------------|
D|--5--------7--------|
A|--5--------7--------|
E|--3--------5--------|(x2)


[Solo part] 

e|--------------------------------------------------------------------------------------------------|
B|-14----------14----------13----------13----------14----------14----------13----------13-----------|
G|----13----13----13----13----13----13----13----13----13----13----13----13----13----13----13----13--|
D|-------15----------15----------15----------15----------15----------15----------15----------15-----|
A|--------------------------------------------------------------------------------------------------|
E|--------------------------------------------------------------------------------------------------|

e|--------------------------------------------------------------------------------------------------|
B|--------------------------------------------------------------------------------------------------|
G|-15----------15----------17----------17----------15----------15----------17----------17-----------|
D|----16----16----16----16----16----16----16----16----16----16----16----16----16----16----16---16---|
A|-------18----------18----------18----------18----------18----------18----------18----------18-----|
E|--------------------------------------------------------------------------------------------------|


e|--------------------------------------------------------------------------------------------------|
B|-14----------16----18----13----------13----------14----------16----18----13----------13-----------|
G|----13----13----13----13----13----13----13----13----13----13----13----13----13----13----13----13--|
D|-------15----------------------15----------15----------15----------------------15----------15-----|
A|--------------------------------------------------------------------------------------------------|
E|--------------------------------------------------------------------------------------------------|

e|--------------------------------------------------------------------------------------------------|
B|--------------------------------------------------------------------------------------------------|
G|-15----------15----------17----------17----------15----------15----------17----------17-----------|
D|----16----16----16----16----16----16----16----16----16----16----16----16----16----16----16---16---|
A|-------18----------18----------18----------18----------18----------18----------18----------18-----|
E|--------------------------------------------------------------------------------------------------|


[Outro] 

Phaser effect

e|--------------------|
B|--------------------|
G|--------------------|
D|---6-------8--------|
A|---6-------8--------|
E|---4-------6--------|




            
            
Suggest correction
Creating personal tab
Creating personal tab
You can edit any tab online and save it as your Personal.

You can edit, replace or remove any tab part or add personal notes – all changes will be seen only by you.

Personal tabs can be accessed anytime from any device, even offline.
Learn more »
Give kudos to tab author, rate the tab!
1 2 3 4 5
comments
print report bad tab
guest
Wanna post a correction for this tab? Suggest correction