Oops, an error
Loading. Please wait.

All The Time Bass Tab

version 1
version 1

Whole song

Interactive

1,829 views 6 this week
no commentswrite comment
1 2 3 4 5
please rate
add to favorites
launch autoscroll
font size
0
reset
guitar tuner
Tab Pro tools
  • play this tab
  • loop segment
  • change instrument
  • show fretboard
  • metronome
×
Best way to learn
"All The Time"
Autoscroll
slow
fast
+/-
esc
set tempo
stop
Contributor
The Strokes - All The Time (Bass)
Tabbed by Arman Dezfuli-Arjomandi
rawrmaan@gmail.com
@rawrmaan

The bass is pretty hard to hear in this song because of the production but it's there!

Verse 1
G|-----------------------------------------------------------|
D|-----------------------------------------------------------|
A|-7-7-7-7-7-7-7-5-5-5-5-5-5-5-5-5-5-5-5-5-5-8-8-8-8-8-8-8-8-| x3
E|-----------------------------------------------------------|

G|---------------------------------------------------------------|
D|---------------------------------------------------------------|
A|-7-7-7-7-7-7-7-5-5-5-5-5-5-5-5-5-5-5-5-5-5-8-8-8-8-10-10-10-10-|
E|---------------------------------------------------------------|

Pre-Chorus (x2)
G|-------------------------------------------------|
D|-------------------------------------------------|
A|-12-12-12-12-12-12-12-12-12-12-12-12-12-12-12-12-|
E|-------------------------------------------------|

G|----------------------------------------|
D|----------------------------------------|
A|-10-10-10-10-10-10-10-9-9-9-9-9-9-9-9-9-|
E|----------------------------------------|

Chorus 1
G|------------------------------------------------------------------|
D|------------------------------------------------------------------|
A|-5-5-5-4--4-4-4-5-5-5-4--4-4-4-5-5-5-4--4-4-4---------------------| x2
E|----------------------------------------------7-7-7-5--(5)-(5)-(5)|

Verse 2
G|-----------------------------------------------------------|
D|-----------------------------------------------------------|
A|-7-7-7-7-7-7-7-5-5-5-5-5-5-5-5-5-5-5-5-5-5-8-8-8-8-8-8-8-8-|
E|-----------------------------------------------------------|

G|---------------------------------------------------------------|
D|---------------------------------------------------------------|
A|-7-7-7-7-7-7-7-5-5-5-5-5-5-5-5-5-5-5-5-5-5-8-8-8-8-10-10-10-10-|
E|---------------------------------------------------------------|

Pre-Chorus (x2)

Chorus 2
G|-------------------------------------------------------------|
D|-------------------------------------------------------------|
A|-5-5-5-4--4-4-4-5-5-5-4--4-4-4-5-5-5-4--4-4-4----------------|
E|----------------------------------------------7-7-7-5--5-5-5-|

G|------------------------------------------------------|
D|------------------------------------------------------|
A|-5-5-5-4--4-4-4---------------------------------------|
E|----------------7-7-7-5--5-5-5-2-2-2-0--0-0-0-7-7-7-5-|

Solo: Verse 2 then Pre-Chorus (x2).

Chorus 3 (x2)
G|-------------------------------------------------------------|
D|-------------------------------------------------------------|
A|-5-5-5-4--4-4-4-5-5-5-4--4-4-4-5-5-5-4--4-4-4----------------|
E|----------------------------------------------7-7-7-5--5-5-5-|

G|-7-7-7-6--6-6-6-4-4-4-2--2-2-2------------------------|
D|-------------------------------4-4-4-2--2-2-2---------|
A|------------------------------------------------------|
E|----------------------------------------------7-7-7-5-|
comments
We did not receive enough feedback on this tab! Please rate:
print report bad tab
1 2 3 4 5
I want to post or [tab]
guest
You may want to rate the tab now too:
select rating
Please do not post tabs as comments. Select "correction" instead!