Oops, an error
Loading. Please wait.

All The Time Tab

version 1
version 1

Whole song

Interactive

16,339 views 51 this week
8 commentsread comments
1 2 3 4 5
excellent!
x 10
add to favorites
launch autoscroll
font size
0
reset
how to read this tab
guitar tuner
Tab Pro tools
  • play this tab
  • loop segment
  • change instrument
  • show fretboard
  • metronome
×
Best way to learn
"All The Time"
Autoscroll
slow
fast
+/-
esc
set tempo
stop
Contributor
My first tab ever.

I don't know if it's 100% accurate but it sounds good while playing. The timing in the 
pre-chorus and the solo is off, although it's easy to get if you listen to the song 
closely for a few times.

Please rate and comment!


Intro:


Guitar 2:

|-----------------------------------------------------------------|
|-----------------------------------------------------------------|
|-9-9-9-9-9-9-9-9-7-7-7-7-7-7-7-7-7-7-7-7-7-7-7-7-1010101010101010|
|-9-9-9-9-9-9-9-9-9-9-9-9-9-9-9-9-7-7-7-7-7-7-7-7-1010101010101010|
|-7-7-7-7-7-7-7-7-7-7-7-7-7-7-7-7-5-5-5-5-5-5-5-5-8-8-8-8-8-8-8-8-|
|-----------------------------------------------------------------|

|-----------------------------------------------------------------|
|-----------------------------------------------------------------|
|-9-9-9-9-9-9-9-9-7-7-7-7-7-7-7-7-7-7-7-7-7-7-7-7-10-10-10--101010|
|-9-9-9-9-9-9-9-9-9-9-9-9-9-9-9-9-7-7-7-7-7-7-7-7-10-10-10--101010|
|-7-7-7-7-7-7-7-7-7-7-7-7-7-7-7-7-5-5-5-5-5-5-5-5-8--8--8---8-8-8-|
|-----------------------------------------------------------------|
                                 

Verse:                                

                                  
Guitar 1:                         

|-12~~~~~~~~~~~~~~~~~~~~~~~~~~~~~-10~~~~~~~~~~~~~-13~~~~~~~~~~~~~~|
|-12~~~~~~~~~~~~~~~~~~~~~~~~~~~~~-10~~~~~~~~~~~~~-13~~~~~~~~~~~~~~|
|-13~~~~~~~~~~~~~~~~~~~~~~~~~~~~~-11~~~~~~~~~~~~~-14~~~~~~~~~~~~~~|
|-14~~~~~~~~~~~~~~~~~~~~~~~~~~~~~~12~~~~~~~~~~~~~~15~~~~~~~~~~~~~~| X2
|-----------------------------------------------------------------|
|-----------------------------------------------------------------|

Guitar 2:

|-----------------------------------------------------------------|
|-----------------------------------------------------------------|
|-9-9-9-9-9-9-9-9-7-7-7-7-7-7-7-7-7-7-7-7-7-7-7-7-1010101010101010|
|-9-9-9-9-9-9-9-9-9-9-9-9-9-9-9-9-7-7-7-7-7-7-7-7-1010101010101010| X2
|-7-7-7-7-7-7-7-7-7-7-7-7-7-7-7-7-5-5-5-5-5-5-5-5-8-8-8-8-8-8-8-8-|
|-----------------------------------------------------------------|


Pre-chorus:


Guitar 1:

|------------------------------------------------|
|-10----------9-------9---8---------7-------7----|
|-----9-----9----9------9----7----7----7-------7-|
|--------11---------11----------9---------7------| X2
|------------------------------------------------|
|------------------------------------------------|

Guitar 2:

|-----------------------------------------------------------------|
|-----------------------------------------------------------------|
|-----------------------------------------------------------------|
|-7-7-7-7-7-7-7-7-6-6-6-6-6-6-6-6-5-5-5-5-5-5-5-5-4-4-4-4-4-4-4-4-| X2
|-7-7-7-7-7-7-7-7-7-7-7-7-7-7-7-7-5-5-5-5-5-5-5-5-5-5-5-5-5-5-5-5-|
|-----------------------------------------------------------------|


Chorus:


Guitar 1:

|----------------------------------|
|----------------------------------|
|-7~~~~~~~~~~~~~~~-9~~~~-----------|
|-7~~~~~~~~~~~~~~~-9~~~~-7~~~~~~~~-| X2
|-5~~~~~~~~~~~~~~~-7~~~~-7~~~~~~~~-|
|------------------------5~~~~~~~~-|
|_______X3_______| 
                   
Guitar 2:                    
                             
|----------------------------------|
|----------------------------------|
|-7-7-7------------9-9-9-----------|
|-7-7-7-7---7-7-7--9-9-9-7---7-7-7-| X2
|-5-5-5-7---7-7-7--7-7-7-7---7-7-7-|
|-------5---5-5-5--------5---5-5-5-|
|_______X3_______|


Then play verse, pre-chorus and chorus again.


Solo:


Guitar 1:

|-----------------------------------------------------------|
|--------9--10--12/14--12--15--14--15--12h14p12-------------|
|----11------------------------------------------14--13-----|
|-----------------------------------------------------------|
|-----------------------------------------------------------|
|-----------------------------------------------------------|

|-----------------------------------------------------------|
|----------------10--12--10--13--12--13--10h12p10--8h10p8---|
|---------9--11------------------------------------------10-|
|-----12----------------------------------------------------|
|-----------------------------------------------------------|
|-10--------------------------------------------------------|

|-----------------------------------------------------------|
|----9-----10-----12------15------15-----14-----12-----10---|
|-----------------------------------------------------------|
|-6-----7------9------11------12------11------9------7------|
|-----------------------------------------------------------|
|-----------------------------------------------------------|

|-----------------------------------------------------------|
|-----15-----14----12-----13------13-----12----10-----6-----|
|-----------------------------------------------------------|
|-12-----11-----9-----7------10------9-----7------3---------|
|-----------------------------------------------------------|
|-----------------------------------------------------------|

|-----7--9--10/12--9--12/14--12--10--9----------------------|
|-10------------------------------------12--10----------10--|
|---------------------------------------------------12------|
|-----------------------------------------------------------|
|-----------------------------------------------10----------|
|-----------------------------------------------------------|

|-----9--12--9--12--9/10--12h14p1210h12p10--9---------------|
|-12--------------------------------------------------------|
|-----------------------------------------------------------|
|-----------------------------------------------------------|
|-----------------------------------------------------------|
|-----------------------------------------------------------|

|-----------------------------------------------------------|
|-14--15--14--14--14--14--14--14--14--14--14--12--12--10--10|
|-14--14--14--14--13--13--13--14--14--16--16--12--12--11--11|
|-----------------------------------------------------------|
|-----------------------------------------------------------|
|-----------------------------------------------------------|
                                             |__X4__||__X4__|

Guitar 2:

|-----------------------------------------------------------------|
|-----------------------------------------------------------------|
|-9-9-9-9-9-9-9-9-7-7-7-7-7-7-7-7-7-7-7-7-7-7-7-7-1010101010101010|
|-9-9-9-9-9-9-9-9-9-9-9-9-9-9-9-9-7-7-7-7-7-7-7-7-1010101010101010| X2
|-7-7-7-7-7-7-7-7-7-7-7-7-7-7-7-7-5-5-5-5-5-5-5-5-8-8-8-8-8-8-8-8-|
|-----------------------------------------------------------------|

|-----------------------------------------------------------------|
|-----------------------------------------------------------------|
|-----------------------------------------------------------------|
|-7-7-7-7-7-7-7-7-6-6-6-6-6-6-6-6-5-5-5-5-5-5-5-5-4-4-4-4-4-4-4-4-| X2
|-7-7-7-7-7-7-7-7-7-7-7-7-7-7-7-7-5-5-5-5-5-5-5-5-5-5-5-5-5-5-5-5-|
|-----------------------------------------------------------------|

Then play chorus twice.

End on A

|-5-------|
|-5-------|
|-6-------|
|-7-------|
|-7-------|
|-5-------|


Song order:


Intro
Verse
Pre-chorus
Chorus
Verse
Pre-chorus
Chorus
Solo
Chorus X2
comments
print report bad tab
8 comments total. Showing first comments.
0 reply
matteh wrote on March 16 2013, 07:38 am

I play the second chord of the intro as:

D 9

Otherwise, very well done and thankyou!

0 reply
matteh wrote on March 16 2013, 07:41 am

For some reason my earlier comment didn't post properly, I meant to say:



D 9

0 reply
matteh wrote on March 16 2013, 07:42 am

I give up, what I meant to say is 7 on the A, 9 on the D and 7 on the G

I want to post or [tab]
guest
You may want to rate the tab now too:
select rating
Please do not post tabs as comments. Select "correction" instead!