Oops, an error
Loading. Please wait.

Alone Together Tab

version 1
version 1

Whole song

Interactive

19,107 views 6 this week
3 commentsread comments
1 2 3 4 5
accurate
x 11
add to favorites
launch autoscroll
font size
0
reset
how to read this tab
guitar tuner
Tab Pro tools
  • play this tab
  • loop segment
  • change instrument
  • show fretboard
  • metronome
×
Best way to learn
"Alone Together"
Autoscroll
slow
fast
+/-
esc
set tempo
stop
Contributor
Drum Intro

RIFF 1 - Guitar 1 (Dist., slight palm mute)

E|----------------------------------------- |
B|-----------------------------------------.|
G|------5-------------------5-------------- |  x 2
D|---------7-------------------7------5-7--.|
A|------------7-7-5-7-------------7-7------ |
E|--5-5-----------------5-5---------------- |

RIFF 2 - Guitar 2 (Dist. Chorus effect?)

E|--3-3-3-3-3-3-3-3-1-1-1-1-1-1-1-1-1-1-1-1-1-1-1-1-1-|
B|--3-3-3-3-3-3-3-3-1-1-1-1-1-1-1-1-1-1-1-1-1-1-1-1-1-|
G|--4-4-4-4-4-4-4-4-2-2-2-2-2-2-2-2-2-2-2-2-2-2-2-2-2-|
D|--5-5-5-5-5-5-5-5-3-3-3-3-3-3-3-3-3-3-3-3-3-3-3-3-3-|
A|----------------------------------------------------|
E|----------------------------------------------------|

RIFF 1

RIFF 2

RIFF 1 x 2

RIFF 2

RIFF 3 - Guitar 1 or 2 (Dist.)

E|--8-----8-----8----8----8----8-----8-----8----8----8----8----8--|
B|--10----10----10---10---10---10----10----10---10---10---10---10-|
G|--9-----9-----9----9----9----9-----9-----9----9----9----9----9--|
D|--10----10----10---10---10---10----10----10---10---10---10---10-|
A|----------------------------------------------------------------|
E|----------------------------------------------------------------|

CHORUS (hard to tell what it is, but this works)

E|--------------------------------- |
B|---------------------------------.|
G|-5-5-5-5-5-5-5-5-3-3-3-3-7-7-7-7- | x 4
D|-7-7-7-7-5-5-5-5-5-5-5-5-7-7-7-7-.|
A|-7-7-7-7-3-3-3-3-5-5-5-5-5-5-5-5- |
E|-5-5-5-5-3-3-3-3-3-3-3-3-5-5-5-5- |

RIFF 1 (x2)

RIFF 2

RIFF 1 (x2)

RIFF 2

RIFF 3
(at the end of this Guitar 1):

E|------------------5-5-5-8~~~~-|
B|----------5/7h8---------------|
G|--5---------------------------|
D|----7-------------------------|
A|------7-7---------------------|
E|------------------------------|

BRIDGE

E|--------------------------------------------|
B|--------------------------------------------|
G|--5-5-5-5-5-5-5-5-5/8--8--8--8--8--8--8--8--|
D|--7-7-7-7-7-7-7-7-7/10-10-10-10-10-10-10-10-|
A|--7-7-7-7-7-7-7-7-7/10-10-10-10-10-10-10-10-|
E|--5-5-5-5-5-5-5-5-5/8--8--8--8--8--8--8--8--|

CHORUS

SOLO

E|----------------------------------------------------------------|
B|-8/10-8/10-8/10-8/10-7-------------------8/10-8/10-8/10-8/10-7--|
G|-----------------------5/7-5/7-5/7-5/7--------------------------|
D|---------------------------------------7------------------------|
A|----------------------------------------------------------------|
E|----------------------------------------------------------------|

E|--5/8-5/8-5/8-5/8-5-|
B|--------------------|
G|--------------------| x2
D|--------------------|
A|--------------------|
E|--------------------|


This is my first tab, so I don't know how accurate it'll be.
comments
print report bad tab
3 comments total.
0 reply
dyingforwhat wrote on August 17 2004, 12:00 am

Nice tab. The only thing I have to gripe about is the solo.

0 reply
chrissya8 wrote on July 22 2006, 08:16 pm

mostly wrong.

0 reply
adio_blacklabel wrote on February 8 2007, 07:27 pm

not bad for a virgin i must say

I want to post or [tab]
guest
You may want to rate the tab now too:
select rating
Please do not post tabs as comments. Select "correction" instead!