Oops, an error
Loading. Please wait.

Alone Together Tab

version 2
version 2

Whole song

Interactive

71,685 views 96 this week
11 commentsread comments
1 2 3 4 5
excellent!
x 41
add to favorites
launch autoscroll
font size
0
reset
how to read this tab
guitar tuner
Tab Pro tools
  • play this tab
  • loop segment
  • change instrument
  • show fretboard
  • metronome
×
Best way to learn
"Alone Together"
Autoscroll
slow
fast
+/-
esc
set tempo
stop
Contributor
Intro: Drums
Riff 1: - Guitar 1 
e|--------------------------------------------------------------------------|
B|--------------------------------------------------------------------------|
G|-----5-----------------5-------------------5-----------------5------------| 
D|--------7-----------------7-------------------7----------------7----------|
A|-0-0-------7-7-5-7--0-0------7-7-5-7--0-0-------7-7-5-7--0-0------7-7-5-7-|
E|--------------------------------------------------------------------------|

Riff 2: - Guitar 2 
   No choice now, it's too late
e|--------------------------------|
B|-88888888888666666666666666666--|
G|-77777777777555555555555555555--|
D|--------------------------------|
A|--------------------------------|
E|--------------------------------|

Riff 1:
e|-----------------------------------------|
B|-----------------------------------------|
G|------5-------------------5--------------|  
D|---------7-------------------7-----------|
A|--0-0-------7-7-5-7----0-0------7-7-5-7--|
E|-----------------------------------------|

Riff 2: - Guitar 2 
   Let him go, he gave up
e|-----------------------------|
B|-88888888666666666666666666--|
G|-77777777555555555555555555--|
D|-----------------------------|
A|-----------------------------|
E|-----------------------------|

Riff 1: 
I gave up
e|--------------------------------------------------------------------------|
B|--------------------------------------------------------------------------|
G|-----5-----------------5-------------------5-----------------5------------| 
D|--------7-----------------7-------------------7----------------7----------|
A|-0-0-------7-7-5-7--0-0------7-7-5h7--0-0-------7-7-5-7--0-0------7-7-5-7-|
E|--------------------------------------------------------------------------|

Riff 2: 
   Lisa says, take time for me dropping him down to his knees
e|----------------------------------------------------------------|
B|-8888888888888888888888888866666666666666666666666666666666666--|
G|-7777777777777777777777777755555555555555555555555555555555555--|
D|----------------------------------------------------------------|
A|----------------------------------------------------------------|
E|----------------------------------------------------------------|

Riff 1:
Ah, chest down
e|--------------------------------------------------------------------------|
B|--------------------------------------------------------------------------|
G|-----5-----------------5-------------------5-----------------5------------| 
D|--------7-----------------7-------------------7----------------7----------|
A|-0-0-------7-7-5-7--0-0------7-7-5-7--0-0-------7-7-5-7--0-0------7-7-5-7-|
E|--------------------------------------------------------------------------|





Riff 3 & Chorus: 
Take me away see I've got to explain
Things, they have changed In such a permanent way
Life seems unreal can we go back to your place?
Oh, you drink too much, makes me drink just the same
   Am                    D
e|-5-5-5-5-5-5-5-5-5-5-5-5-5-5-5-5-5-5-5-5-5-5-5-5-5-5--|
B|-5-5-5-5-5-5-5-5-5-5-5-7-7-7-7-7-7-7-7-7-7-7-7-7-7-7--|
G|-5-5-5-5-5-5-5-5-5-5-5-7-7-7-7-7-7-7-7-7-7-7-7-7-7-7--|
D|-7-7—7-7-7-7-7-7-7-7-7-7-7-7-7-7-7-7-7-7-7-7-7-7-7-7--|
A|-7-7-7-7-7-7-7-7-7-7-7-5-5-5-5-5-5-5-5-5-5-5-5-5-5-5--|
E|-5-5-5-5-5-5-5-5-5-5-5-5—5-5-5-5-5-5-5-5-5-5-5-5-5-5--|
Chorus Riff:
e----------------------------------------| x4
B----------------------------------------|
G----------------------------------7-----|
D-7--7--9--------------------9--9--------|
A----------10----10--7--7-------------9--|
E----------------------------------------|

Riff 1:
e|--------------------------------------------------------------------------|
B|--------------------------------------------------------------------------|
G|-----5-----------------5-------------------5-----------------5------------| 
D|--------7-----------------7-------------------7----------------7----------|
A|-0-0-------7-7-5-7--0-0------7-7-5-7--0-0-------7-7-5-7--0-0------7-7-5-7-|
E|--------------------------------------------------------------------------|

Riff 2:
   People tried, felt so right
e|------------------------------|
B|-888888886666666666666666666--|
G|-777777775555555555555555555--|
D|------------------------------|
A|------------------------------|
E|------------------------------|

Riff 1:
e|--------------------------------------------------------------------------|
B|--------------------------------------------------------------------------|
G|-----5-----------------5-------------------5-----------------5------------| 
D|--------7-----------------7-------------------7----------------7----------|
A|-0-0-------7-7-5-7--0-0------7-7-5h7--0-0-------7-7-5-7--0-0------7-7-5-7-|
E|--------------------------------------------------------------------------|

Riff 2:
   Giving themselves good advice looking down sometimes felt nice
e|----------------------------------------------------------------|
B|-7777777777777777777777777755555555555555555555555555555555555--|
G|-8888888888888888888888888866666666666666666666666666666666666--|
D|----------------------------------------------------------------|
A|----------------------------------------------------------------|
E|----------------------------------------------------------------|

Riff 1:							(at the end of this riff)
e|-----------------------------------------|	x2	e|--55555/88888--|
B|-----------------------------------------|		B|--55555/77777--|
G|------5-------------------5--------------|  	G|---------------|
D|---------7-------------------7-----------|		D|---------------|
A|--0-0-------7-7-5-7----0-0------7-7-5-7--|		A|---------------|
E|-----------------------------------------|		E|---------------|








Chorus: 
He knows it's justified to kill to survive
He then in dollars makes more dead than alive
Let's suck more blood, let's run three hours a day
The world is over but I don't care 'Cause
   Am                    D					Second Guitar Too:
e|-5-5-5-5-5-5-5-5-5-5-5-5-5-5-5-5-5-5-5-5-5-5-5-5-5--|    e|--55555/88888--| x4
B|-5-5-5-5-5-5-5-5-5-5-5-7-7-7-7-7-7-7-7-7-7-7-7-7-7--|    B|--55555/77777--|
G|-5-5-5-5-5-5-5-5-5-5-5-7-7-7-7-7-7-7-7-7-7-7-7-7-7--|    G|---------------|
D|-7-7—7-7-7-7-7-7-7-7-7-7-7-7-7-7-7-7-7-7-7-7-7-7-7--|    D|---------------|
A|-7-7-7-7-7-7-7-7-7-7-7-5-5-5-5-5-5-5-5-5-5-5-5-5-5--|    A|---------------|
E|-5-5-5-5-5-5-5-5-5-5-5-5—5-5-5-5-5-5-5-5-5-5-5-5-5--|    E|---------------|

Riff 2:
I am with you Now I've got to explain
Things, they have changed In such a permanent way
Life seems unreal, can we go back to your place?
You drink too much, makes me drink just the same
   Am                    D
e|-5-5-5-5-5-5-5-5-5-5-5-5-5-5-5-5-5-5-5-5-5-5-5-5-5-5--|
B|-5-5-5-5-5-5-5-5-5-5-5-7-7-7-7-7-7-7-7-7-7-7-7-7-7-7--|
G|-5-5-5-5-5-5-5-5-5-5-5-7-7-7-7-7-7-7-7-7-7-7-7-7-7-7--|
D|-7-7—7-7-7-7-7-7-7-7-7-7-7-7-7-7-7-7-7-7-7-7-7-7-7-7--|
A|-7-7-7-7-7-7-7-7-7-7-7-5-5-5-5-5-5-5-5-5-5-5-5-5-5-5--|
E|-5-5-5-5-5-5-5-5-5-5-5-5—5-5-5-5-5-5-5-5-5-5-5-5-5-5--|
Chorus riff:
e|----------------------------------------| x4
B|----------------------------------------|
G|----------------------------------7-----|
D|-7--7--9--------------------9--9--------|
A|------- --10----10--7--7-------------9--|
E|----------------------------------------|

Pre & Solo:
e|-55555/88888\55555/1010101010\--55555/88888\55555--8----8----|
B|-55555/77777\77777/1313131313\--55555/77777\77777----7----7--| 
G|-------------------------------------------------------------|
D|-------------------------------------------------------------|
A|-------------------------------------------------------------|
E|-------------------------------------------------------------|

e-------------------------------------------------------5h8-5h8-5h8-5h8-5--|	x2
B-5h8-5h8-5h8-5h8-5-------------------5h8-5h8-5h8-5h8-5--------------------|
G-------------------5h7-5h7-5h7-5h7-5--------------------------------------| 
D--------------------------------------------------------------------------|
A--------------------------------------------------------------------------|
E--------------------------------------------------------------------------|

Chorus 3: 
The first time, it happened too fast
The second time, I thought it would last
We all like it a little different...
   Am                    D
e|-5-5-5-5-5-5-5-5-5-5-5-5-5-5-5-5-5-5-5-5-5-5-5-5-5-5--|
B|-5-5-5-5-5-5-5-5-5-5-5-7-7-7-7-7-7-7-7-7-7-7-7-7-7-7--|
G|-5-5-5-5-5-5-5-5-5-5-5-7-7-7-7-7-7-7-7-7-7-7-7-7-7-7--|
D|-7-7—7-7-7-7-7-7-7-7-7-7-7-7-7-7-7-7-7-7-7-7-7-7-7-7--|
A|-7-7-7-7-7-7-7-7-7-7-7-5-5-5-5-5-5-5-5-5-5-5-5-5-5-5--|
E|-5-5-5-5-5-5-5-5-5-5-5-5—5-5-5-5-5-5-5-5-5-5-5-5-5-5--|

e|--555/888\555/101010\--| x2 	e|--555/888/101010/1213/1414--|
B|--555/777\777/131313\--|	B|--555/777/131313/1515/1717--|
G|-----------------------|	G|----------------------------|
D|-----------------------|	D|----------------------------|
A|-----------------------|	A|----------------------------|
E|-----------------------|	E|----------------------------|



  Final Solo:
e|--17-15-12---------------------------------------|          
B|------------17-15-13-----------------------------|
G|----------------------14-13-12-------------------|
D|--------------------------------14-13-12---------|
A|------------------------------------------17-15~-|
E|-------------------------------------------------|

						  End
						   Am
e|-----------------------------------------|	e|--5--|
B|-----------------------------------------|	B|--5--|
G|------5-------------------5--------------|	G|--5--|
D|---------7-------------------7-----------|	D|--7--|
A|--0-0-------7-7-5-7---0-0-------7-7-5-7--|	A|--7--|
E|-----------------------------------------|	E|--5--|

Any comments email me ragarideath@hotmail.com, regards from Tijuana BC, Méx.
This tan is dedicated to my child and my wife Maribel Cardona. (I Love U Honey)
comments
print report bad tab
11 comments total. Showing first comments.
+4 reply
Trevor6 wrote on February 19 2006, 10:51 pm

good job man The strokes rule!

+3 reply
claptonisgod21 wrote on May 11 2006, 10:46 am

great tab best one on here by fare, the strokes rule cheers

+3 reply
SheenZula wrote on October 24 2007, 12:20 pm

its all pretty good

Pre & Solo should be like this. Well at least its how i play it..
e|--2/----5--8--7--10----5--8--7---8--8--------
B|--2/----5--8--7--10----5--8--7----7--0-------
G|--2/----5--9--7--11----5--9--7---------------
D|---------------------------------------------
A|---------------------------------------------
E|--------------------------------------------- and so on..

End solo should look like this. And the C chord im not sure about.. but for now it sounds ok
e|--5--8--10--12--15^-12-------------------------------------
B|--5--8--10--13---------15^-13------------------------------
G|--5--9--11--12-----------------14-13-12--------------------
D|-----------------------------------------14-13-12-10-------
A|-----------------------------------------------------------
E|-----------------------------------------------------------

I want to post or [tab]
guest
You may want to rate the tab now too:
select rating
Please do not post tabs as comments. Select "correction" instead!